Ac Dc

Tnt Correct Version Tabs



More from Ac Dc

Ac Dc Tabs
Ac Dc Chords
Ac Dc Bass
Ac Dc Lyrics




main verse:
|----------------------|
|----------------------|
|----------------------|
|-3-3-6-8--8-6-8-6-3-3-|
|-3-3-6-8--8-6-8-6-3-3-|
|-1-1-4-6--6-4-6-4-1-1-| (power chord)

chourus: (play a chord
when they say a new letter
of T N T)
|-----------------------|
|-----------------------|
|-----------------------|
|-8-6-3---8-6-3---8-6-3-|
|-8-6-3---8-6-3---8-6-3-|
|-6-4-1---6-4-1---6-4-1-|
^ ^ ^ ^ ^ ^ ^ ^ ^
T N T T N T T N T

post chourus:
(when they say
"watch me expload")
|-----------|
|-----------|
|-----------|
|-3-6--8____|
|-3-6--8____|
|-1-4--6____|

order:
intro
verse
chourus
verse
chourus
electric guitar solo
chourus

(post chourus is part of the chourus)



Get this song at amazon.com      Ebay     Ringtones Ringtones  


Learn to play: Songwriting, Piano, Harmonica, Guitar

Related Ac Dc Tabs

Go Down tabs
Solo (tnt) tabs
Back In Black6 tabs
Ride On Solo tabs
It\'s A Long Way To The Top tabs
Boogie Man tabs
Can I Sit Next To You tabs
Fire Your Guns tabs
Bonny tabs
Mistress For Christmas tabs
Stink Around tabs
Burning Alive tabs
Thunderstruct tabs
Tnt 100% tabs
Rock & Roll Damnation tabs
Shake Your Foundations tabs
Whole Lotta Rosie tabs
Girls Got Rhythm Intro tabs
Its A Long Way tabs
Overdose Solo tabs


Guitar Tabs









All tabs are property and copyright of their owners. All tabs provided for educational purposes only. Privacy Policy, DMCA