Ac Dc

Tnt Bass Tabs



More from Ac Dc

Ac Dc Tabs
Ac Dc Chords
Ac Dc Bass
Ac Dc Lyrics



AC/DC-TNT

*******************************************************************************************

Tabbed By: Alex MacDonald

Email: webmaster at tabs-database.com.com



Tuning: Standard





G|--------------------------------------------------|

D|--------------------------------------------------|

A|--------------------------------------------------|

E|-0------------------------------------------------|





G|------------------------------|

D|------------------------------|

A|-----7-----7-----7-----7------|

E|---0-----0-----0-----0---3-5--|



G|-------------------------------------------------------------------|

D|-------------------------------------------------------------------|

A|-------------------------------------------------------------------|

E|-5-3-000000000000-5-3-000000000000-5-3-000000000000-5-3-0000-33-5--|



G|------------------|

D|------------------|

A|------------------|

E|-0--3-5--3-5-3-0--|





G|------------------|

D|------------------|

A|------------------|

E|-3-5--3-5-3-0-----|



G|------------------|

D|------------------|

A|------------------|

E|-3-5--3-5-3-0-----|



G|------------------|

D|------------------|

A|------------------|

E|-3-5--3-5-3-0-----|



G|------------------|

D|------------------|

A|------------------|

E|-3-5--3-5-3-0-----|



G|------------------|

D|------------------|

A|------------------|

E|-3-5--3-5-3-0-----|



G|------------------|

D|------------------|

A|------------------|

E|-3-5--3-5-3-0-----|



G|--------------------|

D|--------------------|

A|--------------------|

E|-3-5--3-5-3-0---3-5-|



G|-------------------------------------------------------------------|

D|-------------------------------------------------------------------|

A|-------------------------------------------------------------------|

E|-5-3-000000000000-5-3-000000000000-5-3-000000000000-5-3-0000-33-5--|



G|-------------------------------------------|

D|-------------------------------------------|

A|-------------------------------------------|

E|-00000000000000000000000000000000000-3-5---|



G|-------------------------------------------------------------------|

D|-------------------------------------------------------------------|

A|-------------------------------------------------------------------|

E|-5-3-00000000000-5-3-00000000000-5-3-00000000000-5-3-0000000000000-|



G|-------------------------------------------------------------------|

D|-------------------------------------------------------------------|

A|-------------------------------------------------------------------|

E|-5-3-00000000000-5-3-00000000000-5-3-00000000000-5-3-0000-3-5------|



G|------------------------------------------------------------------------------|

D|------------------------------------------------------------------------------|

A|------------------------------------------------------------------------------|

E|0000-1111-2222-3333-4444-5555-6666-77-8-88-9-99-10-10-11-12-13-14-15-16-17-18-|



G|---------|

D|---------|

A|---------|

E|-------0-|Added by tabs-database.com and our distinguished partners
Get this song at amazon.com      Ebay     Ringtones Ringtones  


Learn to play: Songwriting, Piano, Harmonica, Guitar

Related Ac Dc Tabs

D T tabs
Crabsody In Blue tabs
Momma Lova tabs
For Those About To Rock tabs
If You Want Blood (you've Got It) tabs
Theres Gonna Some Rockin tabs
Thunderstruck tabs
Thunderstruck G tabs
Send For The Man tabs
Back In Black3 tabs
Gimme A Bullet tabs
Burnin Alive tabs
Flick Of The Switch Solo tabs
She Shook Me All Night Long tabs
Rock N Roll Singer tabs
Damned tabs
Walk All Over U tabs
Spellbound tabs
Cant Stop Rock And Roll tabs
Touch Too Much Bonfire Volts Version tabs


Guitar Tabs









All tabs are property and copyright of their owners. All tabs provided for educational purposes only. Privacy Policy, DMCA