Ac Dc

Tnt 100% Tabs



More from Ac Dc

Ac Dc Tabs
Ac Dc Chords
Ac Dc Bass
Ac Dc Lyrics



E-|---|----|-----------------------|-----------------
B-|---|----|-----------------------|-----------------
G-|---|----|-----------------------|-----------------
D-|-2-|----|-2---------------------|-----------------
A-|-2-|----|-2-----5--5------------|-----------------
E-|-0-|----|-0-----3--7---3--5--3--|-----------------



intro verse
e/---|------------------------------------|
B/---|------------------------------------|
G/---|-----0--2----2----------------------|
D/-2-|--2--0--2----2----------------------|
A/-2-|--2-----0----0----------------------|
E/-0-|--0--3-----3----3-------------------|
.
chorus
e/------------------------------------------|
B/------------------------------------------|
G/--2---------------------------------------|
D/--2-----2---------------------------------|
A/--0-----2---------------------------------|
E/-----3b--0--------------------------------|

solo
e/-------3p2p0----------------------------|
B/-------------3p2p0----------------------|
G/-2b(4)-------------2p0-----0------------|
D/------------------------/5--------------|
A/----------------------------------------|
E/----------------------------------------|

e/-------12--------------------------------|
B/-15~~~----15-12-----12-------------------|
G/----------------14b----14-12----14-------|
D/-----------------------------14----14----|
A/-----------------------------------------|
E/-----------------------------------------|

e/---------------------------------12-----|
B/-----------------12-15-12-----12----12--|
G/-12~~~------14b-----------14b-----------|
D/----------------------------------------|
A/----------------------------------------|
E/----------------------------------------|

e/-------12-15-12----12-------------------|
B/--15~~----------15----15-12-------------|
G/----------------------------14-12----14-|
D/----------------------------------14----|
A/----------------------------------------|
E/----------------------------------------|

e/-----------------------17~~~~~~~~~------|
B/----------------------------------------|
G/----12----------------------------------|
D/-14------14p12-14~~---------------------|
A/----------------------------------------|
E/----------------------------------------|



Get this song at amazon.com      Ebay     Ringtones Ringtones  


Learn to play: Songwriting, Piano, Harmonica, Guitar

Related Ac Dc Tabs

It\'s A Long Way To The Top tabs
Rock & Roll Damnation tabs
Big Gun tabs
Shoot To Thrill tabs
Stiff Upper Lip tabs
Whiskey On The Rocks tabs
Whiskey On The Rocks (the Easiest Way To Play The Intro) tabs
First Blood tabs
Momma Lova tabs
Rock N Roll Make Noise Pollution tabs
Twos Up Intro tabs
Sattelite Blues tabs
If You Want Blood You Got It tabs
Fly On The Wall tabs
Inject The Venom tabs
Rock & Roll Aint Noise Pollution tabs
School Days tabs
Over Dose tabs
Moneytalks Solo tabs
Burning Alive tabs


Guitar Tabs









All tabs are property and copyright of their owners. All tabs provided for educational purposes only. Privacy Policy, DMCA