Ac Dc

Thunderstruck All Guitars Tabs



More from Ac Dc

Ac Dc Tabs
Ac Dc Chords
Ac Dc Bass
Ac Dc Lyrics



Thunderstruck


AC/DC
Guitar 1/intro--->




E||-------|----------------------------------|
B||-----0h|--4h0-7h0-4h0-7h0-4h0-7h0-4h0-7h0-|
G||-------|----------------------------------|
D||-------|----------------------------------|
A||-------|----------------------------------|
E||-------|----------------------------------|



----------------------------------|----------------------------------|
--4h0-7h0-4h0-7h0-4h0-7h0-4h0-7h0-|--5h0-8h0-5h0-8h0-5h0-8h0-5h0-8h0-|
----------------------------------|----------------------------------|
----------------------------------|----------------------------------|
----------------------------------|----------------------------------|
----------------------------------|----------------------------------|



----------------------------------|----------------------------------|
--5h0-8h0-5h0-8h0-5h0-8h0-5h0-8h0-|--4h0-7h0-4h0-7h0-4h0-7h0-4h0-7h0-|
----------------------------------|----------------------------------|
----------------------------------|----------------------------------|
----------------------------------|----------------------------------|
----------------------------------|----------------------------------|



----------------------------------|----------------------------------|
--4h0-7h0-4h0-7h0-4h0-7h0-4h0-7h0-|--5h0-8h0-5h0-8h0-5h0-8h0-5h0-8h0-|
----------------------------------|----------------------------------|
----------------------------------|----------------------------------|
----------------------------------|----------------------------------|
----------------------------------|----------------------------------|



----------------------------------|-------------------------------------|
--5h0-8h0-5h0-8h0-5h0-8h0-5h0-8h0-|--12h0-10h0-9h0-10h0-9h0-7h0-9h0-5h0-|
----------------------------------|-------------------------------------|
----------------------------------|-------------------------------------|
----------------------------------|-------------------------------------|
----------------------------------|-------------------------------------|



----------------------------------|-------------------------------------|
--7h0-4h0-5h0-4h0-5h0-4h0-5h0-4h0-|--12h0-10h0-9h0-10h0-9h0-7h0-9h0-5h0-|
----------------------------------|-------------------------------------|
----------------------------------|-------------------------------------|
----------------------------------|-------------------------------------|
----------------------------------|-------------------------------------|



----------------------------------|-------------------------------------|
--7h0-4h0-5h0-4h0-5h0-4h0-5h0-4h0-|--12h0-10h0-9h0-10h0-9h0-7h0-9h0-5h0-|
----------------------------------|-------------------------------------|
----------------------------------|-------------------------------------|
----------------------------------|-------------------------------------|
----------------------------------|-------------------------------------|



----------------------------------|-------------------------------------|
--7h0-4h0-5h0-4h0-5h0-4h0-5h0-4h0-|--12h0-10h0-9h0-10h0-9h0-7h0-9h0-5h0-|
----------------------------------|-------------------------------------|
----------------------------------|-------------------------------------|
----------------------------------|-------------------------------------|
----------------------------------|-------------------------------------|



----------------------------------|-------------------------------------|
--7h0-4h0-5h0-4h0-5h0-4h0-5h0-4h0-|--12h0-10h0-9h0-10h0-9h0-7h0-9h0-5h0-|
----------------------------------|-------------------------------------|
----------------------------------|-------------------------------------|
----------------------------------|-------------------------------------|
----------------------------------|-------------------------------------|



----------------------------------|-------------------------------------|
--7h0-4h0-5h0-4h0-5h0-4h0-5h0-4h0-|--12h0-10h0-9h0-10h0-9h0-7h0-9h0-5h0-|
----------------------------------|-------------------------------------|
----------------------------------|-------------------------------------|
----------------------------------|-------------------------------------|
----------------------------------|-------------------------------------|



----------------------------------|-------------------------------------|
--7h0-4h0-5h0-4h0-5h0-4h0-5h0-4h0-|--12h0-10h0-9h0-10h0-9h0-7h0-9h0-5h0-|
----------------------------------|-------------------------------------|
----------------------------------|-------------------------------------|
----------------------------------|-------------------------------------|
----------------------------------|-------------------------------------|



----------------------------------|-------------------------------------|
--7h0-4h0-5h0-4h0-5h0-4h0-5h0-4h0-|--12h0-10h0-9h0-10h0-9h0-7h0-9h0-5h0-|
----------------------------------|-------------------------------------|
----------------------------------|-------------------------------------|
----------------------------------|-------------------------------------|
----------------------------------|-------------------------------------|



----------------------------------|-------------------------------------|
--7h0-4h0-5h0-4h0-5h0-4h0-5h0-4h0-|--12h0-10h0-9h0-10h0-9h0-7h0-9h0-5h0-|
----------------------------------|-------------------------------------|
----------------------------------|-------------------------------------|
----------------------------------|-------------------------------------|
----------------------------------|-------------------------------------|



----------------------------------|-------------------------------------|
--7h0-4h0-5h0-4h0-5h0-4h0-5h0-4h0-|--12h0-10h0-9h0-10h0-9h0-7h0-9h0-5h0-|
----------------------------------|-------------------------------------|
----------------------------------|-------------------------------------|
----------------------------------|-------------------------------------|
----------------------------------|-------------------------------------|



----------------------------------|-------------------------------------|
--7h0-4h0-5h0-4h0-5h0-4h0-5h0-4h0-|--12h0-10h0-9h0-10h0-9h0-7h0-9h0-5h0-|
----------------------------------|-------------------------------------|
----------------------------------|-------------------------------------|
----------------------------------|-------------------------------------|
----------------------------------|-------------------------------------|



----------------------------------|-------------------------------------|
--7h0-4h0-5h0-4h0-5h0-4h0-5h0-4h0-|--12h0-10h0-9h0-10h0-9h0-7h0-9h0-5h0-|
----------------------------------|-------------------------------------|
----------------------------------|-------------------------------------|
----------------------------------|-------------------------------------|
----------------------------------|-------------------------------------|



----------------------------------|-------------------------------------|
--7h0-4h0-5h0-4h0-5h0-4h0-5h0-4h0-|--12h0-10h0-9h0-10h0-9h0-7h0-9h0-5h0-|
----------------------------------|-------------------------------------|
----------------------------------|-------------------------------------|
----------------------------------|-------------------------------------|
----------------------------------|-------------------------------------|



----------------------------------|-------------------------------------|
--7h0-4h0-5h0-4h0-5h0-4h0-5h0-4h0-|--12h0-10h0-9h0-10h0-9h0-7h0-9h0-5h0-|
----------------------------------|-------------------------------------|
----------------------------------|-------------------------------------|
----------------------------------|-------------------------------------|
----------------------------------|-------------------------------------|



----------------------------------|-------------------------------------|
--7h0-4h0-5h0-4h0-5h0-4h0-5h0-4h0-|--12h0-10h0-9h0-10h0-9h0-7h0-9h0-5h0-|
----------------------------------|-------------------------------------|
----------------------------------|-------------------------------------|
----------------------------------|-------------------------------------|
----------------------------------|-------------------------------------|



----------------------------------|-------------------------------------|
--7h0-4h0-5h0-4h0-5h0-4h0-5h0-4h0-|--12h0-10h0-9h0-10h0-9h0-7h0-9h0-5h0-|
----------------------------------|-------------------------------------|
----------------------------------|-------------------------------------|
----------------------------------|-------------------------------------|
----------------------------------|-------------------------------------|



----------------------------------|-------------------------------------|
--7h0-4h0-5h0-4h0-5h0-4h0-5h0-4h0-|--12h0-10h0-9h0-10h0-9h0-7h0-9h0-5h0-|
----------------------------------|-------------------------------------|
----------------------------------|-------------------------------------|
----------------------------------|-------------------------------------|
----------------------------------|-------------------------------------|



----------------------------------|-------------------------------------|
--7h0-4h0-5h0-4h0-5h0-4h0-5h0-4h0-|--12h0-10h0-9h0-10h0-9h0-7h0-9h0-5h0-|
----------------------------------|-------------------------------------|
----------------------------------|-------------------------------------|
----------------------------------|-------------------------------------|
----------------------------------|-------------------------------------|



----------------------------------|-------------------------------------|
--7h0-4h0-5h0-4h0-5h0-4h0-5h0-4h0-|--12h0-10h0-9h0-10h0-9h0-7h0-9h0-5h0-|
----------------------------------|-------------------------------------|
----------------------------------|-------------------------------------|
----------------------------------|-------------------------------------|
----------------------------------|-------------------------------------|



----------------------------------|-------------------------------------|
--7h0-4h0-5h0-4h0-5h0-4h0-5h0-4h0-|--12h0-10h0-9h0-10h0-9h0-7h0-9h0-5h0-|
----------------------------------|-------------------------------------|
----------------------------------|-------------------------------------|
----------------------------------|-------------------------------------|
----------------------------------|-------------------------------------|



----------------------------------|-------------------------------------|
--7h0-4h0-5h0-4h0-5h0-4h0-5h0-4h0-|--12h0-10h0-9h0-10h0-9h0-7h0-9h0-5h0-|
----------------------------------|-------------------------------------|
----------------------------------|-------------------------------------|
----------------------------------|-------------------------------------|
----------------------------------|-------------------------------------|



----------------------------------|-------------------------------------|
--7h0-4h0-5h0-4h0-5h0-4h0-5h0-4h0-|--12h0-10h0-9h0-10h0-9h0-7h0-9h0-5h0-|
----------------------------------|-------------------------------------|
----------------------------------|-------------------------------------|
----------------------------------|-------------------------------------|
----------------------------------|-------------------------------------|



----------------------------------|-------------------------------------|
--7h0-4h0-5h0-4h0-5h0-4h0-5h0-4h0-|--12h0-10h0-9h0-10h0-9h0-7h0-9h0-5h0-|
----------------------------------|-------------------------------------|
----------------------------------|-------------------------------------|
----------------------------------|-------------------------------------|
----------------------------------|-------------------------------------|



----------------------------------|-------------------------------------|
--7h0-4h0-5h0-4h0-5h0-4h0-5h0-4h0-|--12h0-10h0-9h0-10h0-9h0-7h0-9h0-5h0-|
----------------------------------|-------------------------------------|
----------------------------------|-------------------------------------|
----------------------------------|-------------------------------------|
----------------------------------|-------------------------------------|



----------------------------------|-------------------------------------|
--7h0-4h0-5h0-4h0-5h0-4h0-5h0-4h0-|--12h0-10h0-9h0-10h0-9h0-7h0-9h0-5h0-|
----------------------------------|-------------------------------------|
----------------------------------|-------------------------------------|
----------------------------------|-------------------------------------|
----------------------------------|-------------------------------------|



----------------------------------|-------------------------------------|
--7h0-4h0-5h0-4h0-5h0-4h0-5h0-4h0-|--12h0-10h0-9h0-10h0-9h0-7h0-9h0-5h0-|
----------------------------------|-------------------------------------|
----------------------------------|-------------------------------------|
----------------------------------|-------------------------------------|
----------------------------------|-------------------------------------|



----------------------------------|------------------|------------------|
--7h0-4h0-5h0-4h0-5h0-4h0-5h0-4h0-|------------------|------------------|
----------------------------------|------------------|------------------|
----------------------------------|------------------|------------------|
----------------------------------|------------------|------------------|
----------------------------------|------------------|------------------|



-------------------------------------|----------------------------------|
--12h0-10h0-9h0-10h0-9h0-7h0-9h0-5h0-|--7h0-4h0-5h0-4h0-5h0-4h0-5h0-4h0-|
-------------------------------------|----------------------------------|
-------------------------------------|----------------------------------|
-------------------------------------|----------------------------------|
-------------------------------------|----------------------------------|



-------------------------------------|----------------------------------|
--12h0-10h0-9h0-10h0-9h0-7h0-9h0-5h0-|--7h0-4h0-5h0-4h0-5h0-4h0-5h0-4h0-|
-------------------------------------|----------------------------------|
-------------------------------------|----------------------------------|
-------------------------------------|----------------------------------|
-------------------------------------|----------------------------------|



-------------------------------------|----------------------------------|
--12h0-10h0-9h0-10h0-9h0-7h0-9h0-5h0-|--7h0-4h0-5h0-4h0-5h0-4h0-5h0-4h0-|
-------------------------------------|----------------------------------|
-------------------------------------|----------------------------------|
-------------------------------------|----------------------------------|
-------------------------------------|----------------------------------|



-------------------------------------|----------------------------------|
--12h0-10h0-9h0-10h0-9h0-7h0-9h0-5h0-|--7h0-4h0-5h0-4h0-5h0-4h0-5h0-4h0-|
-------------------------------------|----------------------------------|
-------------------------------------|----------------------------------|
-------------------------------------|----------------------------------|
-------------------------------------|----------------------------------|



-------------------------------------|----------------------------------|
--12h0-10h0-9h0-10h0-9h0-7h0-9h0-5h0-|--7h0-4h0-5h0-4h0-5h0-4h0-5h0-4h0-|
-------------------------------------|----------------------------------|
-------------------------------------|----------------------------------|
-------------------------------------|----------------------------------|
-------------------------------------|----------------------------------|



-------------------------------------|----------------------------------|
--12h0-10h0-9h0-10h0-9h0-7h0-9h0-5h0-|--7h0-4h0-5h0-4h0-5h0-4h0-5h0-4h0-|
-------------------------------------|----------------------------------|
-------------------------------------|----------------------------------|
-------------------------------------|----------------------------------|
-------------------------------------|----------------------------------|



-------------------------------------|----------------------------------|
--12h0-10h0-9h0-10h0-9h0-7h0-9h0-5h0-|--7h0-4h0-5h0-4h0-5h0-4h0-5h0-4h0-|
-------------------------------------|----------------------------------|
-------------------------------------|----------------------------------|
-------------------------------------|----------------------------------|
-------------------------------------|----------------------------------|



-------------------------------------|----------------------------------|
--12h0-10h0-9h0-10h0-9h0-7h0-9h0-5h0-|--7h0-4h0-5h0-4h0-5h0-4h0-5h0-4h0-|
-------------------------------------|----------------------------------|
-------------------------------------|----------------------------------|
-------------------------------------|----------------------------------|
-------------------------------------|----------------------------------|



-------------------------------------|----------------------------------|
--12h0-10h0-9h0-10h0-9h0-7h0-9h0-5h0-|--7h0-4h0-5h0-4h0-5h0-4h0-5h0-4h0-|
-------------------------------------|----------------------------------|
-------------------------------------|----------------------------------|
-------------------------------------|----------------------------------|
-------------------------------------|----------------------------------|



-------------------------------------|----------------------------------|
--12h0-10h0-9h0-10h0-9h0-7h0-9h0-5h0-|--7h0-4h0-5h0-4h0-5h0-4h0-5h0-4h0-|
-------------------------------------|----------------------------------|
-------------------------------------|----------------------------------|
-------------------------------------|----------------------------------|
-------------------------------------|----------------------------------|



-------------------------------------|----------------------------------|
--12h0-10h0-9h0-10h0-9h0-7h0-9h0-5h0-|--7h0-4h0-5h0-4h0-5h0-4h0-5h0-4h0-|
-------------------------------------|----------------------------------|
-------------------------------------|----------------------------------|
-------------------------------------|----------------------------------|
-------------------------------------|----------------------------------|



-------------------------------------|----------------------------------|
--12h0-10h0-9h0-10h0-9h0-7h0-9h0-5h0-|--7h0-4h0-5h0-4h0-5h0-4h0-5h0-4h0-|
-------------------------------------|----------------------------------|
-------------------------------------|----------------------------------|
-------------------------------------|----------------------------------|
-------------------------------------|----------------------------------|



-------------------------------------|----------------------------------|
--12h0-10h0-9h0-10h0-9h0-7h0-9h0-5h0-|--7h0-4h0-5h0-4h0-5h0-4h0-5h0-4h0-|
-------------------------------------|----------------------------------|
-------------------------------------|----------------------------------|
-------------------------------------|----------------------------------|
-------------------------------------|----------------------------------|



------------------------------|------------------|
--12h0-10h0-9h0-10h0-9/-------|------------------|
------------------------------|------------------|
------------------------------|------------------|
------------------------------|------------------|
------------------------------|------------------|



-------------------------------------|----------------------------------|
--12h0-10h0-9h0-10h0-9h0-7h0-9h0-5h0-|--7h0-4h0-5h0-4h0-5h0-4h0-5h0-4h0-|
-------------------------------------|----------------------------------|
-------------------------------------|----------------------------------|
-------------------------------------|----------------------------------|
-------------------------------------|----------------------------------|



-------------------------------------|----------------------------------|
--12h0-10h0-9h0-10h0-9h0-7h0-9h0-5h0-|--7h0-4h0-5h0-4h0-5h0-4h0-5h0-4h0-|
-------------------------------------|----------------------------------|
-------------------------------------|----------------------------------|
-------------------------------------|----------------------------------|
-------------------------------------|----------------------------------|



-------------------------------------|----------------------------------|
--12h0-10h0-9h0-10h0-9h0-7h0-9h0-5h0-|--7h0-4h0-5h0-4h0-5h0-4h0-5h0-4h0-|
-------------------------------------|----------------------------------|
-------------------------------------|----------------------------------|
-------------------------------------|----------------------------------|
-------------------------------------|----------------------------------|



-------------------------------------|----------------------------------|
--12h0-10h0-9h0-10h0-9h0-7h0-9h0-5h0-|--7h0-4h0-5h0-4h0-5h0-4h0-5h0-4h0-|
-------------------------------------|----------------------------------|
-------------------------------------|----------------------------------|
-------------------------------------|----------------------------------|
-------------------------------------|----------------------------------|



-------------------------------------|----------------------------------|
--12h0-10h0-9h0-10h0-9h0-7h0-9h0-5h0-|--7h0-4h0-5h0-4h0-5h0-4h0-5h0-4h0-|
-------------------------------------|----------------------------------|
-------------------------------------|----------------------------------|
-------------------------------------|----------------------------------|
-------------------------------------|----------------------------------|



-------------------------------------|----------------------------------|
--12h0-10h0-9h0-10h0-9h0-7h0-9h0-5h0-|--7h0-4h0-5h0-4h0-5h0-4h0-5h0-4h0-|
-------------------------------------|----------------------------------|
-------------------------------------|----------------------------------|
-------------------------------------|----------------------------------|
-------------------------------------|----------------------------------|



-------------------------------------|----------------------------------|
--12h0-10h0-9h0-10h0-9h0-7h0-9h0-5h0-|--7h0-4h0-5h0-4h0-5h0-4h0-5h0-4h0-|
-------------------------------------|----------------------------------|
-------------------------------------|----------------------------------|
-------------------------------------|----------------------------------|
-------------------------------------|----------------------------------|



-------------------------------------|----------------------------------|
--12h0-10h0-9h0-10h0-9h0-7h0-9h0-5h0-|--7h0-4h0-5h0-4h0-5h0-4h0-5h0-4h0-|
-------------------------------------|----------------------------------|
-------------------------------------|----------------------------------|
-------------------------------------|----------------------------------|
-------------------------------------|----------------------------------|


-------------------------------------|----------------------------------|
--12h0-10h0-9h0-10h0-9h0-7h0-9h0-5h0-|--7h0-4h0-5h0-4h0-5h0-4h0-5h0-4h0-|
-------------------------------------|----------------------------------|
-------------------------------------|----------------------------------|
-------------------------------------|----------------------------------|
-------------------------------------|----------------------------------|



-------------------------------------|----------------------------------|
--12h0-10h0-9h0-10h0-9h0-7h0-9h0-5h0-|--7h0-4h0-5h0-4h0-5h0-4h0-5h0-4h0-|
-------------------------------------|----------------------------------|
-------------------------------------|----------------------------------|
-------------------------------------|----------------------------------|
-------------------------------------|----------------------------------|



-------------------------------------|----------------------------------|
--12h0-10h0-9h0-10h0-9h0-7h0-9h0-5h0-|--7h0-4h0-5h0-4h0-5h0-4h0-5h0-4h0-|
-------------------------------------|----------------------------------|
-------------------------------------|----------------------------------|
-------------------------------------|----------------------------------|
-------------------------------------|----------------------------------|



-------------------------------------|----------------------------------|
--12h0-10h0-9h0-10h0-9h0-7h0-9h0-5h0-|--7h0-4h0-5h0-4h0-5h0-4h0-5h0-4h0-|
-------------------------------------|----------------------------------|
-------------------------------------|----------------------------------|
-------------------------------------|----------------------------------|
-------------------------------------|----------------------------------|



-------------------------------------|----------------------------------|
--12h0-10h0-9h0-10h0-9h0-7h0-9h0-5h0-|--7h0-4h0-5h0-4h0-5h0-4h0-5h0-4h0-|
-------------------------------------|----------------------------------|
-------------------------------------|----------------------------------|
-------------------------------------|----------------------------------|
-------------------------------------|----------------------------------|



-------------------------------------|----------------------------------|
--12h0-10h0-9h0-10h0-9h0-7h0-9h0-5h0-|--7h0-4h0-5h0-4h0-5h0-4h0-5h0-4h0-|
-------------------------------------|----------------------------------|
-------------------------------------|----------------------------------|
-------------------------------------|----------------------------------|
-------------------------------------|----------------------------------|



-------------------------------------|----------------------------------|
--12h0-10h0-9h0-10h0-9h0-7h0-9h0-5h0-|--7h0-4h0-5h0-4h0-5h0-4h0-5h0-4h0-|
-------------------------------------|----------------------------------|
-------------------------------------|----------------------------------|
-------------------------------------|----------------------------------|
-------------------------------------|----------------------------------|



-------------------------------------|----------------------------------|
--12h0-10h0-9h0-10h0-9h0-7h0-9h0-5h0-|--7h0-4h0-5h0-4h0-5h0-4h0-5h0-4h0-|
-------------------------------------|----------------------------------|
-------------------------------------|----------------------------------|
-------------------------------------|----------------------------------|
-------------------------------------|----------------------------------|



-------------------------------------|----------------------------------|
--12h0-10h0-9h0-10h0-9h0-7h0-9h0-5h0-|--7h0-4h0-5h0-4h0-5h0-4h0-5h0-4h0-|
-------------------------------------|----------------------------------|
-------------------------------------|----------------------------------|
-------------------------------------|----------------------------------|
-------------------------------------|----------------------------------|



-------------------------------------|----------------------------------|
--12h0-10h0-9h0-10h0-9h0-7h0-9h0-5h0-|--7h0-4h0-5h0-4h0-5h0-4h0-5h0-4h0-|
-------------------------------------|----------------------------------|
-------------------------------------|----------------------------------|
-------------------------------------|----------------------------------|
-------------------------------------|----------------------------------|



-------------------------------------|----------------------------------|
--12h0-10h0-9h0-10h0-9h0-7h0-9h0-5h0-|--7h0-4h0-5h0-4h0-5h0-4h0-5h0-4h0-|
-------------------------------------|----------------------------------|
-------------------------------------|----------------------------------|
-------------------------------------|----------------------------------|
-------------------------------------|----------------------------------|



-------------------------------------|----------------------------------|
--12h0-10h0-9h0-10h0-9h0-7h0-9h0-5h0-|--7h0-4h0-5h0-4h0-5h0-4h0-5h0-4h0-|
-------------------------------------|----------------------------------|
-------------------------------------|----------------------------------|
-------------------------------------|----------------------------------|
-------------------------------------|----------------------------------|



-------------------------------------|----------------------------------|
--12h0-10h0-9h0-10h0-9h0-7h0-9h0-5h0-|--7h0-4h0-5h0-4h0-5h0-4h0-5h0-4h0-|
-------------------------------------|----------------------------------|
-------------------------------------|----------------------------------|
-------------------------------------|----------------------------------|
-------------------------------------|----------------------------------|



--------10b-12--10----------|--------------------|
----12-------------12-------|----12/-------------|
----------------------------|--------------------|
----------------------------|--------------------|
----------------------------|--------------------|
----------------------------|--------------------|



--12b-12-10-12b-----10------10/-|--9--------------------------|
------------------------12------|-----12--10------12----------|
--------------------------------|-------------11------11/-----|
--------------------------------|-----------------------------|
--------------------------------|-----------------------------|
--------------------------------|-----------------------------|



-------14b-----14b-14--13------|--12------12-12-12-12-10-10b---10-10b---10b-|
--x-12---------------------15--|-----12---------------------12-------12-----|
-------------------------------|--------------------------------------------|
-------------------------------|--------------------------------------------|
-------------------------------|--------------------------------------------|
-------------------------------|--------------------------------------------|



--------12b-------10b-12b-|------12-12b-12b--12b12b12b12b--|
--12----------------------|--------------------------------|
--------------------------|--------------------------------|
--------------------------|--------------------------------|
--------------------------|--------------------------------|
--------------------------|--------------------------------|



--12b-12b12b12b-12b-12b-12b12b--12b-|--12b12h10-----------------12--12b|
------------------------------------|-----------12----------12---------|
------------------------------------|--------------------11------------|
------------------------------------|----------------------------------|
------------------------------------|----------------------------------|
------------------------------------|----------------------------------|



--12h11-----12-10-12-10---------------------|-------------------------------|
--------12----------------------------22----|---22--------------------------|
-----------------------------19-21-21b---21b|------21b--21b-21-19-----------|
--------------------------21----------------|---------------------21--------|
--------------------------------------------|-------------------------------|
--------------------------------------------|-------------------------------|



-------------------19-------------------|----------------22b---|
------22b-22-19-22b---22-19-22-22b22h19-|--22b-----------------|
----------------------------------------|----------------------|
----------------------------------------|----------------------|
----------------------------------------|----------------------|
----------------------------------------|----------------------|



--22b-22b-19b-----------------------|----------------------------|
--------------22-19-----------------|----------22--22------22/---|
--------------------21b-21-19b------|--19-21b------21b-----21/---|
--------------------------------21--|----------------------------|
------------------------------------|----------------------------|
------------------------------------|----------------------------|



-------------------------------------|----------------------------------|
--12h0-10h0-9h0-10h0-9h0-7h0-9h0-5h0-|--7h0-4h0-5h0-4h0-5h0-4h0-5h0-4h0-|
-------------------------------------|----------------------------------|
-------------------------------------|----------------------------------|
-------------------------------------|----------------------------------|
-------------------------------------|----------------------------------|



-------------------------------------|----------------------------------|
--12h0-10h0-9h0-10h0-9h0-7h0-9h0-5h0-|--7h0-4h0-5h0-4h0-5h0-4h0-5h0-4h0-|
-------------------------------------|----------------------------------|
-------------------------------------|----------------------------------|
-------------------------------------|----------------------------------|
-------------------------------------|----------------------------------|



-------------------||
--0----------------||
-------------------||
-------------------||
-------------------||
-------------------||




Guitar #2


------------------|----------------------------|----------------------------|
------------------|----------------------------|----------------------------|
------------------|----4----4-------4----4-----|--4-4----4-------4----4-----|
------------------|----4----4----4--4----4-----|--4-4----4----4--4-4--4-----|
------------------|--2---2-----2------2-----2--|--2---2-----2-2----2-----2--|
------------------|----------------------------|----------------------------|



----------------------------|----------------------------|
----------------------------|----------------------------|
----4----4----4--4----4-----|----4----4----4--4----4-----|
--4------4----4--4----4-----|--4------4----4--4----4-----|
--2---2-----2------2-----2--|--2---2-----2------2-----2--|
----------------------------|----------------------------|



----------------------------|----------------------------|
----------------------------|----------------------------|
----4----4-------4----4-----|--4-4----4-------4----4-----|
----4----4----4--4----4-----|--4-4----4----4--4-4--4-----|
--2---2-----2------2-----2--|--2---2-----2-2----2-----2--|
----------------------------|----------------------------|



----------------------------|----------------------------|
----------------------------|----------------------------|
----4----4----4--4----4-----|----4----4----4--4----4-----|
--4------4----4--4----4-----|--4------4----4--4----4-----|
--2---2-----2------2-----2--|--2---2-----2------2-----2--|
----------------------------|----------------------------|



----------------------------|----------------------------|
----------------------------|----------------------------|
----4----4----4--4----4-----|----4----4----4--4----4-----|
--4------4----4--4----4-----|--4------4----4--4----4-----|
--2---2-----2------2-----2--|--2---2-----2------2-----2--|
----------------------------|----------------------------|



----------------------------|----------------------------|
----------------------------|----------------------------|
----4----4----4--4----4-----|----4----4----4--4----4-----|
--4------4----4--4----4-----|--4------4----4--4----4-----|
--2---2-----2------2-----2--|--2---2-----2------2-----2--|
----------------------------|----------------------------|



----------------------------|----------------------------|
----------------------------|----------------------------|
----4----4----4--4----4-----|----4----4----4--4----4-----|
--4------4----4--4----4-----|--4------4----4--4----4-----|
--2---2-----2------2-----2--|--2---2-----2------2-----2--|
----------------------------|----------------------------|



----------------------------|----------------------------|
----------------------------|----------------------------|
----4----4----4--4----4-----|----4----4----4--4----4-----|
--4------4----4--4----4-----|--4------4----4--4----4-----|
--2---2-----2------2-----2--|--2---2-----2------2-----2--|
----------------------------|----------------------------|



----------------------------|----------------------------|
----------------------------|----------------------------|
----4----4----4--4----4-----|----4----4----4--4----4-----|
--4------4----4--4----4-----|--4------4----4--4----4-----|
--2---2-----2------2-----2--|--2---2-----2------2-----2--|
----------------------------|----------------------------|



----------------------------|----------------------------|
----------------------------|----------------------------|
----4----4----4--4----4-----|----4----4----4--4----4-----|
--4------4----4--4----4-----|--4------4----4--4----4-----|
--2---2-----2------2-----2--|--2---2-----2------2-----2--|
----------------------------|----------------------------|



----------------------------|----------------------------|
----------------------------|----------------------------|
----4----4----4--4----4-----|----4----4----4--4----4-----|
--4------4----4--4----4-----|--4------4----4--4----4-----|
--2---2-----2------2-----2--|--2---2-----2------2-----2--|
----------------------------|----------------------------|



----------------------------|----------------------------|
----------------------------|----------------------------|
----4----4----4--4----4-----|----4----4----4--4----4-----|
--4------4----4--4----4-----|--4------4----4--4----4-----|
--2---2-----2------2-----2--|--2---2-----2------2-----2--|
----------------------------|----------------------------|



----------------------------|----------------------------|
----------------------------|----------------------------|
----4----4----4--4----4-----|----4----4----4--4----4-----|
--4------4----4--4----4-----|--4------4----4--4----4-----|
--2---2-----2------2-----2--|--2---2-----2------2-----2--|
----------------------------|----------------------------|



----------------------------|----------------------------|
----------------------------|----------------------------|
----4----4----4--4----4-----|----4----4----4--4----4-----|
--4------4----4--4----4-----|--4------4----4--4----4-----|
--2---2-----2------2-----2--|--2---2-----2------2-----2--|
----------------------------|----------------------------|



----------------------------|----------------------------|
----------------------------|----------------------------|
----4----4----4--4----4-----|----4----4----4--4----4-----|
--4------4----4--4----4-----|--4------4----4--4----4-----|
--2---2-----2------2-----2--|--2---2-----2------2-----2--|
----------------------------|----------------------------|



----------------------------|----------------------------|------------------|
----------------------------|----------------------------|------------------|
----4----4----4--4----4-----|----4----4----4--4----4-----|------------------|
--4------4----4--4----4-----|--4------4----4--4----4-----|------------------|
--2---2-----2------2-----2--|--2---2-----2------2-----2--|------------------|
----------------------------|----------------------------|------------------|



------------------|----------------------------|----------------------------|
------------------|----------------------------|----------------------------|
------------------|----4----4----4--4----4-----|----4----4----4--4----4-----|
------------------|--4------4----4--4----4-----|--4------4----4--4----4-----|
------------------|--2---2-----2------2-----2--|--2---2-----2------2-----2--|
------------------|----------------------------|----------------------------|



----------------------------|----------------------------|
----------------------------|----------------------------|
----4----4----4--4----4-----|----4----4----4--4----4-----|
--4------4----4--4----4-----|--4------4----4--4----4-----|
--2---2-----2------2-----2--|--2---2-----2------2-----2--|
----------------------------|----------------------------|



----------------------------|----------------------------|
----------------------------|----------------------------|
----4----4----4--4----4-----|----4----4----4--4----4-----|
--4------4----4--4----4-----|--4------4----4--4----4-----|
--2---2-----2------2-----2--|--2---2-----2------2-----2--|
----------------------------|----------------------------|



----------------------------|----------------------------|
----------------------------|----------------------------|
----4----4----4--4----4-----|----4----4----4--4----4-----|
--4------4----4--4----4-----|--4------4----4--4----4-----|
--2---2-----2------2-----2--|--2---2-----2------2-----2--|
----------------------------|----------------------------|



----------------------------|----------------------------|
----------------------------|----------------------------|
----4----4----4--4----4-----|----4----4----4--4----4-----|
--4------4----4--4----4-----|--4------4----4--4----4-----|
--2---2-----2------2-----2--|--2---2-----2------2-----2--|
----------------------------|----------------------------|



----------------------------|----------------------------|
----------------------------|----------------------------|
----4----4----4--4----4-----|----4----4----4--4----4-----|
--4------4----4--4----4-----|--4------4----4--4----4-----|
--2---2-----2------2-----2--|--2---2-----2------2-----2--|
----------------------------|----------------------------|



----------------------------|----------------------------|
----------------------------|----------------------------|
----4----4----4--4----4-----|----4----4----4--4----4-----|
--4------4----4--4----4-----|--4------4----4--4----4-----|
--2---2-----2------2-----2--|--2---2-----2------2-----2--|
----------------------------|----------------------------|



----------------------------|----------------------------|
----------------------------|----------------------------|
----4----4----4--4----4-----|----4----4----4--4----4-----|
--4------4----4--4----4-----|--4------4----4--4----4-----|
--2---2-----2------2-----2--|--2---2-----2------2-----2--|
----------------------------|----------------------------|



----------------------------|----------------------------|
----------------------------|----------------------------|
----4----4----4--4----4-----|----4----4----4--4----4-----|
--4------4----4--4----4-----|--4------4----4--4----4-----|
--2---2-----2------2-----2--|--2---2-----2------2-----2--|
----------------------------|----------------------------|


B5 A5 E5
----------------------------|----------------------------|---------------------|
----------------------------|----------------------------|---------------------|
----4----4----4--4----4-----|----4----4----4--4----4-----|--4----2-------------|
--4------4----4--4----4-----|--4------4----4--4----4-----|--4----2----2--------|
--2---2-----2------2-----2--|--2---2-----2------2-----2--|--2----0----2--------|
----------------------------|----------------------------|------------0--------|


A5 B5 A5 E5 A5
-------------------|---------------------|-------------------|
-------------------|---------------------|-------------------|
--------------2----|--4----2-------------|--------------2----|
--------------2----|--4----2----2--------|--------------2----|
--------------0----|--2----0----2--------|--------------0----|
-------------------|------------0--------|-------------------|


B5 A5 E5 A5 B5 A5 E5
---------------------|-------------------|---------------------|
---------------------|-------------------|---------------------|
--4----2-------------|--------------2----|--4----2-------------|
--4----2----2--------|--------------2----|--4----2----2--------|
--2----0----2--------|--------------0----|--2----0----2--------|
------------0--------|-------------------|------------0--------|


B5 A5 A5 E5
------------------|----------------------|--------------------|
------------------|----------------------|--------------------|
------------------|--4------2------------|--2-----------------|
------------------|--4------2------0h-2--|--2------2----------|
------------------|--2------0------0h-2--|--0------2----------|
------------------|----------------------|---------0----------|


B5 A5 A5 E5 B5 A5
----------------------|--------------------|----------------------|
----------------------|--------------------|----------------------|
--4------2------------|--2-----------------|--4------2------------|
--4------2------0h-2--|--2------2----------|--4------2------0h-2--|
--2------0------0h-2--|--0------2----------|--2------0------0h-2--|
----------------------|---------0----------|----------------------|


A5 E5 B5 A5 A5 E5
--------------------|----------------------|--------------------|
--------------------|----------------------|--------------------|
--2-----------------|--4------2------------|--2-----------------|
--2------2----------|--4------2------0h-2--|--2------2----------|
--0------2----------|--2------0------0h-2--|--0------2----------|
---------0----------|----------------------|---------0----------|


B5 A5 B5
-------------------|-------------------|-------------------|------------------|
-------------------|-------------------|-------------------|------------------|
--4----------------|-----------------2-|--4----------------|------------------|
--4----------------|-----------------2-|--4----------------|------------------|
--2----------------|-----------------0-|--2----------------|------------------|
-------------------|-------------------|-------------------|------------------|


B5 B5
---------------------|------------------|---------------------|
---------------------|------------------|---------------------|
----------4----------|------------------|----------4----------|
----------4----------|------------------|----------4----------|
--2--0----2----------|------------------|--2--0----2----------|
---------------------|------------------|---------------------|



-------------------|--------------------------|-----------------------|
--------x----------|--9--9--------------------|--------------------7--|
-------------------|--9--9--x-x-7b------------|--6-------9----9b------|
-------------------|--9--9--------9--------7--|--7----x--9------------|
-------------------|--------------------9-----|----------7------------|
-------------------|--------------------------|-----------------------|



--7----7---------------------|----------------------|
----10-7---7-----------------|----------------------|
---------9---7b-----------2--|--2b------4--------9b-|
---------------9------2/4-2--|-------x--------------|
-----------------------------|----------------------|
-----------------------------|----------------------|



-------------------------------------|----------------------17b-|
-------------------------------------|--------------------------|
-------7--9--9b9h7---9b9h7---7-------|----9---7b----------------|
----9----------------------9---9/4/9-|--9--------9/---4/-x------|
-------------------------------------|--------------------------|
-------------------------------------|--------------------------|



----17--14--------------17-17b17h14----14-----|-------------------------------|
------------17b-17--15b-------------17----17r-|--15b---17----17--15b-------0--|
----------------------------------------------|-----16----16------------------|
----------------------------------------------|-------------------------------|
----------------------------------------------|-------------------------------|
----------------------------------------------|-------------------------------|



---------------------|---------------------------|---------------------|
---------------------|---------------------------|---------------------|
---------------7-----|--7----9--7--9b---9b9h7----|---------------7-----|
------------9-----9--|------------------------9--|------------9-----9--|
---------------------|---------------------------|---------------------|
---------------------|---------------------------|---------------------|



---------------------------|---------------------|---------------------------|
---------------------------|---------------7-----|--7----9--7--9b---9b9h7----|
--7----9--7--9b---9b9h7----|---------------7-----|--7----9--7--9b---9b9h7----|
------------------------9--|------------9-----9--|------------------------9--|
---------------------------|---------------------|---------------------------|
---------------------------|---------------------|---------------------------|



---------------------|---------------------------|------------------|
---------------7-----|--7----9--7--9b---9b9h7----|------------------|
---------------7-----|--7----9--7--9b---9b9h7----|------------------|
------------9-----9--|------------------------9--|------------------|
---------------------|---------------------------|------------------|
---------------------|---------------------------|------------------|


B5 A5 A5 E5
----------x--x---------|----------------------|--------------------|
----------x--x---------|----------------------|--------------------|
--------------------x--|--4------2------------|--2-----------------|
-----------------------|--4------2------0h-2--|--2------2----------|
-----------------------|--2------0------0h-2--|--0------2----------|
----------------14/----|----------------------|---------0----------|


B5 A5 A5 E5 B5 A5
----------------------|--------------------|----------------------|
----------------------|--------------------|----------------------|
--4------2------------|--2-----------------|--4------2------------|
--4------2------0h-2--|--2------2----------|--4------2------0h-2--|
--2------0------0h-2--|--0------2----------|--2------0------0h-2--|
----------------------|---------0----------|----------------------|


A5 E5 B5 A5 A5 E5
--------------------|----------------------|--------------------|
--------------------|----------------------|--------------------|
--2-----------------|--4------2------------|--2-----------------|
--2------2----------|--4------2------0h-2--|--2------2----------|
--0------2----------|--2------0------0h-2--|--0------2----------|
---------0----------|----------------------|---------0----------|


B5 E5 B5 E5
----------------------|------------------|----------------------|
----------------------|------------------|----------------------|
--4----------------4--|------------------|--4----------------4--|
--4----------------2--|------------------|--4----------------2--|
--2----------------2--|------------------|--2----------------2--|
-------------2--4--0--|------------------|-------------2--4--0--|


B5 E5
------------------|----------------------|------------------|
------------------|----------------------|------------------|
------------------|--4----------------4--|------------------|
------------------|--4----------------2--|------------------|
------------------|--2----------------2--|------------------|
------------------|-------------2--4--0--|------------------|


B5 E5 B5 A5
----------------------|------------------|----------------------|
----------------------|------------------|----------------------|
--4----------------4--|------------------|--4------2------------|
--4----------------2--|------------------|--4------2------0h-2--|
--2----------------2--|------------------|--2------0------0h-2--|
-------------2--4--0--|------------------|----------------------|
Get this song at amazon.com      Ebay     Ringtones Ringtones  


Learn to play: Songwriting, Piano, Harmonica, Guitar

Related Ac Dc Tabs

Back In Black4 tabs
Momma Lova tabs
Up To My Neck In You tabs
Razors Edge tabs
Two tabs
Ride On Solo tabs
Givin The Dog A Bone tabs
Cant Stop Rock-n-roll tabs
Rock N Roll Damnation tabs
Dirty Deeds Done Dirt Cheap tabs
Shake A Leg tabs
Squealer tabs
Heatseeker Live tabs
Are You Ready Intro tabs
Aint Noise Pollution tabs
School Days tabs
Rock & Roll Aint Noise Pollution tabs
Lets Get It Up tabs
Tnt Correct Version tabs
Night Prowler tabs


Guitar Tabs









All tabs are property and copyright of their owners. All tabs provided for educational purposes only. Privacy Policy, DMCA