Ac Dc

Thunder Struck(live) Bass Tabs



More from Ac Dc

Ac Dc Tabs
Ac Dc Chords
Ac Dc Bass
Ac Dc Lyrics




Intro
---------------------------------
---------------------------------
---------------------------------
---7-7-7-7-7-7-7-7-7-7-7-7-7-7-7-

"I was shaking at the knees"
----------------------------
----------------------------
----------------------------
---5-7-5-0--------------(4x)

Chorus
-------------------------
-------------------------
-------------5-----------
---7--5--5-5---0---------

Solo
---------------------------
---------------------------
---------------------------
---7-7-7-7-7-7-7-7-7-7-7-7-

Interlude
---------------------------
---------------------------
---------------------------
---7-7-7-7-7-7-7-7-7-7-7-7-

Chorus
--------------------------
--------------------------
-------------5------------
---7--5--5-5---0----------
any worries contact me on junior_hivesy@hotmail.com



Get this song at amazon.com      Ebay     Ringtones Ringtones  


Learn to play: Songwriting, Piano, Harmonica, Guitar

Related Ac Dc Bass Tabs

Tnt Correct Version bass
Rock And Roll Damnation bass
Hihghway To Hell bass
Highway To Hell (verse And Intro Only) bass
Let There Be Rock (easy To Read) bass
Let There Be Rock (easy) bass
Thundersrtuck bass
C O D bass
Problem Child bass
Hail Ceasar bass
Twos Up bass
Hells Bells (with Guitar Intro For Bass) bass
Hail Caesar bass
Razor's Edge bass
Evil Walks bass
Deep In The Hole bass
The Jack bass
Have A Drink On Me bass
Shook Me All Night Long bass
Breaking The Rules bass


Guitar Tabs









All tabs are property and copyright of their owners. All tabs provided for educational purposes only. Privacy Policy, DMCA