Ac Dc

Thnderstruck (intro) Tabs



More from Ac Dc

Ac Dc Tabs
Ac Dc Chords
Ac Dc Bass
Ac Dc Lyrics



Great intro to play:


|---------------------------------------------------------------------------=
|---0-4-0-7-0-4-0-7-0-4-0-7-0-4-0-7-0-5-0-8-0-5-0-8-0-5-0-8-0-5-0-8---------=
|---------------------------------------------------------------------------=
|---------------------------------------------------------------------------=
|---------------------------------------------------------------------------=
|---------------------------------------------------------------------------=

|---------------------------------------------------------------------------=
|---0-4-0-7-0-4-0-7-0-4-0-7-0-4-0-7-0-5-0-8-0-5-0-8-0-5-0-8-0-5-0-8---------=
|---------------------------------------------------------------------------=
|---------------------------------------------------------------------------=
|---------------------------------------------------------------------------=
|---------------------------------------------------------------------------=

|---------------------------------------------------------------------------=
|---0-12-0-10-0-9-0-10-0-9-0-7-0-9-0-5-0-4-0-5-0-4-0-5-0-4-0-5-0-4-0-5------=
|---------------------------------------------------------------------------=
|---------------------------------------------------------------------------=
|---------------------------------------------------------------------------=
|---------------------------------------------------------------------------=

|---------------------------------------------------------------------------=
|---0-12-0-10-0-9-0-10-0-9-0-7-0-9-0-5-0-4-0-5-0-4-0-5-0-4-0-5-0-4-0-5------=
|---------------------------------------------------------------------------=
|---------------------------------------------------------------------------=
|---------------------------------------------------------------------------=
|---------------------------------------------------------------------------=


That's it. Enjoy


Get this song at amazon.com      Ebay     Ringtones Ringtones  


Learn to play: Songwriting, Piano, Harmonica, Guitar

Related Ac Dc Tabs

Damned tabs
Hard As A Rock G tabs
Twos Up tabs
Landslide tabs
High Voltage Intro tabs
Rock\'n Roll Singer tabs
Hold Me Back tabs
Inject The Venom tabs
Back In Black (u Dig It) tabs
Rock N Roll Singer tabs
Baby, Please Don't Go tabs
Back In Black Live tabs
Back In Black3 tabs
High Voltage tabs
Gimme A Bullet tabs
Girls Got Rhythm Intro tabs
Cant Stand Still tabs
Can I Sit Next To You tabs
Rising Power (intro) tabs
Satellite Blues tabs


Guitar Tabs









All tabs are property and copyright of their owners. All tabs provided for educational purposes only. Privacy Policy, DMCA