Ac Dc

This Is My Song I Made Up (not Ac/dc) Tabs



More from Ac Dc

Ac Dc Tabs
Ac Dc Chords
Ac Dc Bass
Ac Dc Lyrics




Intro X2 2nd part of intro (play once)
|--------------------------------------| |----------------------|
|--------------------------------------| |----------------------|
|--------------------------------------| |----------------------|
|---11-11----7-7---9-9-----------------| |----------------------|
|-9-------5------7--------9-9----------| |//////////////////////|
|-----------------------7--------------| |//////////////////////|

Riff/verse 1 X2
|---------------------------------------|
|---------------------------------------|
|--11-------7--------9------------------|
|--11-------7--------9--------9---------|
|--9--------5--------7--------9---------|
|-----------------------------7---------|

riff 2/semi chrous X2
|-----------------------------------------------|
|-----------------------------------------------|
|-------76----------91097--------76-------------|
|99999--767--77777--91097--99999-767--77777--99-|
|99999--547--77777--78-75--99999-547--77777--99-|
|77777----5--55555---------77777---5--55555--77-|

Chorus
|--------------------------------------------------------------|
|--------------------------------------------------------------|
|------9-------9---------54------------9-------9----------54-5-|
|-7-77-9--7-77-9-7-77-5--545-7----7-77-9--7-77-9--7-77-5--54557|
|-7-77-7--7-77-7-7-77-5--325-7----7-77-7--7-77-7--7-77-5--32537|
|-5-55----5-55---5-55-3----3-5----5-55----5-55----5-55-3----3-5|


Interlude
|-------------------------|
|-------------------------|
|77777777-6-------9-------|
|77777777-6-------9-------|
|55555555-4-------7-------|
|-------------------------|



Get this song at amazon.com      Ebay     Ringtones Ringtones  


Learn to play: Songwriting, Piano, Harmonica, Guitar

Related Ac Dc Tabs

Back In Black (main Riff) (easy Fingering) tabs
Back In Black (whole) tabs
Danger tabs
Evil Walks tabs
Who Made Who tabs
Stink Around tabs
Thats The Way I Wanna Rock N Rock tabs
Rock\'n Roll Singer tabs
Whats Next To The Moon Bass tabs
Big Gun tabs
Gimie A Bullet tabs
Chase The Ace tabs
Hail Ceasar tabs
Nick Of Time tabs
If You Want Blood You Got It tabs
Spellbound tabs
Rising Power tabs
Tnt tabs
Squealer tabs
Blow Up Your Video tabs


Guitar Tabs









All tabs are property and copyright of their owners. All tabs provided for educational purposes only. Privacy Policy, DMCA