Ac Dc

The Jack Tabs



More from Ac Dc

Ac Dc Tabs
Ac Dc Chords
Ac Dc Bass
Ac Dc Lyrics

                                      AC/DC

THE JACK





INTRO:

okay there are two ways to play the intro

One involves long stretches with your fingers,

and one os just simple chords.



(Long Stretch Way)

e---------------------------------------------------------------------------------

B---------------------------------------------------------------------------------

G---------------------------------------------------------------------------------

D---4---4-----6----7-----------2---2----4-----5-----------------------------------

A---2---2-----2----2-----------0---0----0-----0-----------------------------------

E---------------------------------------------------------------------------------

(This is the way I think Angus Plays It)



Or You could do the easier way with less stretching.



(Easy Way)

e---------------------------------------------------------------------------------

B---------------------------------------------------------------------------------

G---------------------------------------------------------------------------------

D---4---4-----6----7-----------2---2----4----5------------------------------------

A---2---2-----4----5-----------0---0----0----0------------------------------------

E---------------------------------------------------------------------------------



whichever way you choose play it 3 times then play this.



e-------------------------------------------------------------------------------------

B-------------------------------------------------------------------------------------

G-------------------------------------------------------------------------------------

D------------------------2----3----4---------------4--4--4--4--4--4--4/---------------

A---2---2---4---5--------0----1----2---------------2--2--2--2--2--2--2/---------------

E---0---0---0---0---------------------------------------------------------------------



When you play that part where you repeat the B chord,

start out playing really soft, then get louder slowly,

it sounds a lot better



Verse

e--------------------------------------------------------------------------------------------

B--------------------------------------------------------------------------------------------

G--------------------------------------------------------------------------------------------

D--------------------------------------------------------------------------------------------

A---2---2---4----5--------------2---2---4---5------------------------------------------------

E---0---0---0----0--------------0---0---0---0------------------------------------------------



Play that twice then go to this



e--------------------------------------------------------------------------------------------

B-----------------3---------------------------------3----------------------------------------

G-----------------4---------------------------------4----------------------------------------

D---2---2---4-----5-------------2---2----4----------5----------------------------------------

A---0---0---0-----0-------------0---0----0----------0----------------------------------------

E--------------------------------------------------------------------------------------------



play that twice, then go back to this



e--------------------------------------------------------------------------------------------

B--------------------------------------------------------------------------------------------

G--------------------------------------------------------------------------------------------

D--------------------------------------------------------------------------------------------

A---2---2---4----5--------------2---2---4---5------------------------------------------------

E---0---0---0----0--------------0---0---0---0------------------------------------------------



Play that twice then go back to this



e-----------------------------------------------------------------------------------------

B---------------3--------------------------------3----------------------------------------

G---------------4--------------------------------4----------------------------------------

D---2---2---4---5-------------2---2----4---------5----------------------------------------

A---0---0---0---0-------------0---0----0---------0----------------------------------------

E-----------------------------------------------------------------------------------------



Play that twice then its the chorus



CHORUS



e------------------------------------------------------------------------------------

B------------------------------------------------------------------------------------

G------------------------------------------------------------------------------------

D------------------------------------------------------------------------------------

A---2---2----4--4----5---5----4---4--------------------------------------------------

E---0---0----0--0----0---0----0---0--------------------------------------------------



play that 4 times then go to this



e-----------------------------------------------------------------------------------------

B-----------------------------------------------------------------------------------------

G-----------------------------------------------------------------------------------------

D---2---2----4--4---5---5---4-------------------------------------------------------------

A---0---0----0--0---0---0---0-------------------------------------------------------------

E-----------------------------------------------------------------------------------------



play that twice then go back to this



e----------------------------------------------------------------------------------------

B----------------------------------------------------------------------------------------

G----------------------------------------------------------------------------------------

D----------------------------------------------------------------------------------------

A---2---2----4--4----5---5----4---4------------------------------------------------------

E---0---0----0--0----0---0----0---0------------------------------------------------------



play that twice then in the part where Bon is repeating “Jack”

play this



e----------------------------------------------------------------------------------

B----------------------------------------------------------------------------------

G----4-4-4-4-4-4-4-4-4-4-4-4---------2-2-2-2-2-2-2-2-2-2-2-2-----------------------

D----4-4-4-4-4-4-4-4-4-4-4-4---------2-2-2-2-2-2-2-2-2-2-2-2-----------------------

A----2-2-2-2-2-2-2-2-2-2-2-2---------0-0-0-0-0-0-0-0-0-0-0-0-----------------------

E----------------------------------------------------------------------------------



e--------------------------------------------------------------------------------------

B--------------------------------------------------------------------------------------

G--------------------------------------------------------------------------------------

D---------------------------------------------------------2----3---4-------------------

A--2---2----4--4---5--5---4---4-------2---2---2---2-------0----1---2-------------------

E--0---0----0--0---0--0---0---0-------0---0---0---0------------------------------------



SOLO

For the rythem during the solo just play the verse a few times



e-------------------------------------------------------------------------------------------------

B-------------------------------------------------------------------------------------------------

G---------------9----11b13----------------11b13r11---9---------------------9----11b13-------------

D---9---11-----------------------9---11----------------------------9----11------------------------

A-------------------------------------------------------------------------------------------------

E-------------------------------------------------------------------------------------------------



e------------------------------------------------------------------------------

B---------------12----------------------------------12----15-------------------

G---11b12b13---------13r12b13r11p9/--------14b16-----------------14b16---------

D------------------------------------------------------------------------------

A------------------------------------------------------------------------------

E------------------------------------------------------------------------------



e----------------------------------------------------------------------------------------------

B----------------------------------------------------------------------------------------------

G----14--12---14----14b16----14---12--------14--------12/--------------------------------------

D------------------------------------------------14--------14----------------------------------

A----------------------------------------------------------------------------------------------

E----------------------------------------------------------------------------------------------



e---------------------------------------------------------------------------------------------

B-----------------------------------------3p0---------------------------------------10b12-----

G----2b4----2b4---2b4---2b4---2b4r2p0-----------2p0-----------0-------------------------------

D------------------------------------------------------2p0-------0-----2 trill 0--------------

A---------------------------------------------------------------------------------------------

E---------------------------------------------------------------------------------------------



e--------------------------12---------------------------------------------------------------------------

B---8-------------12h15--------12----15b17---(17)-------17r15p12-----14b15----r14p12--------------------

G-----9vvv----------------------------------------------------------------------------------------------

D-------------------------------------------------------------------------------------------------------

A-------------------------------------------------------------------------------------------------------

E-------------------------------------------------------------------------------------------------------



e---15b17---15b17------15--12--14--15--(17)--15--14--12-------12--------------------------------

B-------------------------------------------------------15-------15---12-------12---------------

G--------------------------------------------------------------------------14------14-----------

D-----------------------------------------------------------------------------------------------

A-----------------------------------------------------------------------------------------------

E-----------------------------------------------------------------------------------------------



e-----------------------------------------------------------------12-------------------

B--------------12--------------------------------------------12--------15---12---------

G---14b16vv---------15p12---14p12---------12h14b16-------------------------------------

D------------------------------------14------------------------------------------------

A--------------------------------------------------------------------------------------

E--------------------------------------------------------------------------------------



e-----------------------------------------------------------------------------------

B--------------------------------------------------------------b15--------b15-------

G---15--14---12-------14-------12/----------------9/---------14b16------14b16-------

D----------------14-------14--------------------------------------------------------

A-----------------------------------------------------------------------------------

E-----------------------------------------------------------------------------------



After the solo go back into the verse



Verse

e--------------------------------------------------------------------------------------------

B--------------------------------------------------------------------------------------------

G--------------------------------------------------------------------------------------------

D--------------------------------------------------------------------------------------------

A---2---2---4----5--------------2---2---4---5------------------------------------------------

E---0---0---0----0--------------0---0---0---0------------------------------------------------



Play that twice then go to this



e-----------------------------------------------------------------------------------------

B---------------3--------------------------------3----------------------------------------

G---------------4--------------------------------4----------------------------------------

D---2---2---4---5-------------2---2----4---------5----------------------------------------

A---0---0---0---0-------------0---0----0---------0----------------------------------------

E-----------------------------------------------------------------------------------------



play that twice, then go back to this



e--------------------------------------------------------------------------------------------

B--------------------------------------------------------------------------------------------

G--------------------------------------------------------------------------------------------

D--------------------------------------------------------------------------------------------

A---2---2---4----5--------------2---2---4---5------------------------------------------------

E---0---0---0----0--------------0---0---0---0------------------------------------------------



Play that twice then go back to this



e-----------------------------------------------------------------------------------------

B---------------3--------------------------------3---------------------------------------

G---------------4--------------------------------4---------------------------------------

D---2---2---4---5-------------2---2----4---------5----------------------------------------

A---0---0---0---0-------------0---0----0---------0----------------------------------------

E-----------------------------------------------------------------------------------------



Play that twice then its the chorus



CHORUS



e----------------------------------------------------------------------------------------

B----------------------------------------------------------------------------------------

G----------------------------------------------------------------------------------------

D----------------------------------------------------------------------------------------

A---2---2----4--4----5---5----4---4------------------------------------------------------

E---0---0----0--0----0---0----0---0------------------------------------------------------



play that 4 times then go to this



e----------------------------------------------------------------------------------------

B----------------------------------------------------------------------------------------

G----------------------------------------------------------------------------------------

D---2---2----4--4---5---5---4------------------------------------------------------------

A---0---0----0--0---0---0---0------------------------------------------------------------

E----------------------------------------------------------------------------------------



play that twice then go back to this



e----------------------------------------------------------------------------------------

B----------------------------------------------------------------------------------------

G----------------------------------------------------------------------------------------

D----------------------------------------------------------------------------------------

A---2---2----4--4----5---5----4---4------------------------------------------------------

E---0---0----0--0----0---0----0---0------------------------------------------------------



play that twice then in the part where Bon is repeating “Jack”

play this



e----------------------------------------------------------------------------------------------

B----------------------------------------------------------------------------------------------

G----4-4-4-4-4-4-4-4-4-4-4-4---------2-2-2-2-2-2-2-2-2-2-2-2-----------------------------------

D----4-4-4-4-4-4-4-4-4-4-4-4---------2-2-2-2-2-2-2-2-2-2-2-2-----------------------------------

A----2-2-2-2-2-2-2-2-2-2-2-2---------0-0-0-0-0-0-0-0-0-0-0-0-----------------------------------

E----------------------------------------------------------------------------------------------



e----------------------------------------------------------------------------------------------

B----------------------------------------------------------------------------------------------

G----------------------------------------------------------------------------------------------

D---------------------------------------------------------2----3---4---------------------------

A--2---2----4--4---5--5---4---4-------2---2---2---2-------0----1---2---------------------------

E--0---0----0--0---0--0---0---0-------0---0---0---0--------------------------------------------



play the chorus a few times then go into the outro







e--------------0ritard-----3b4---0------------------------------------------------------

B-------0h3-------------0--------------3---0--------------------------------------------

G------------------------------------------------2b4r2----0------2p0--------------------

D-------------------------------------------------------------------------2-------------

A---------------------------------------------------------------------------------------

E---0-------------------------------------------------------------------------0---------



e--------0-------------------------------

B--------0-------------------------------

G---2----1------9/-----------------------

D---3----2------9/-----------------------

A---3----2------7/-----------------------

E---1----0-----0/------------------------

Get this song at amazon.com      Ebay     Ringtones Ringtones  


Learn to play: Songwriting, Piano, Harmonica, Guitar

Related Ac Dc Tabs

Back In Black (main Riff) tabs
Tnt tabs
Fly On The Wall tabs
Back In Black (whole) tabs
Up To My Neck In You tabs
Stevens Song tabs
There's Gonna Be Some Rockin tabs
Cant Hold Me Back tabs
Love Hungry Man tabs
Get It Hot tabs
Spellbound tabs
Back In Black 100% tabs
Satellite Blues Bass tabs
For Those About To Rock G tabs
Back In Black4 tabs
Let There Be Rock tabs
Thunderstruck All Guitars tabs
Mistress For Christmas tabs
Gone Shootin tabs
Baby Please Dont Go2 tabs


Guitar Tabs









All tabs are property and copyright of their owners. All tabs provided for educational purposes only. Privacy Policy, DMCA