Ac Dc

The Honey Roll Tabs



More from Ac Dc

Ac Dc Tabs
Ac Dc Chords
Ac Dc Bass
Ac Dc Lyrics



Intro

|---------------------------------------------------|

|---------------------------------------------------|

|---------------------------------------------------|

|-----2-----2------------2-----2-----2-----2------7-|

|-0h2---0h2----5--4--------0h2---------0h2--------7-|

|--------------3--2--0-----------4h5---------4h5--5-|



x3

|-----------------------------------------------------|

|-----------------------------------------------------|

|-----------------------------------------------------|

|-----2-----2------------2-----2-----2-----2------7-2-|

|-0h2---0h2----5--4--------0h2---------0h2--------7-2-|

|--------------3--2--0-----------4h5---------4h5--5-0-|



Verse x4

|-----------------------------------------------|

|-----------------------------------------------|

|-----------------------------------------------|

|-----------------------------------------------|

|-2-2-2---5-4-2-----2--2--2--5--7--5--2--7------|

|-0-0-0---3-2-0-----0--0--0--3--5--3--0--5------|



Pre Chorus

|------------------------------------------------------|

|------------------------------------------------------|

|------------------------------------------------------|

|----7-----------7-----------7------------7--7--7----7-|

|-5--5--7---5-5--5--7---5-5--5--7--5-5-5--5--5--5--7-5-|

|-3-----5---3-3-----5---3-3-----5--3-3-3-----------5---|



|-------------------------------------------------|

|-------------------------------------------------|

|-------------------------------------------------|

|----7-----------7-----------7------------7--7--7-|

|-5--5--7---5-5--5--7---5-5--5--7--5-5-5--5--5--5-|

|-3-----5---3-3-----5---3-3-----5--3-3-3----------|









Chorus x2

|--------------------------------------------------|

|--------------------------------------------------|

|--------------------------------------------------|

|-----------------------2-----2-----2-----2-----7--|

|--2--2---5--4--2---------0h2---------0h2-------5--|

|--0--0---3--2--0---------------4h5---------4h5-5--|





|---------------------------------------------------|

|---------------------------------------------------|

|---------------------------------------------------|

|-----2-----2------------2-----2-----2-----2------7-|

|-0h2---0h2----5--4--------0h2---------0h2--------7-|

|--------------3--2--0-----------4h5---------4h5--5-|



|-----------------------------------------------------|

|-----------------------------------------------------|

|-----------------------------------------------------|

|-----------------------2-----2-----2-----2-----7-5-2-|

|--2--2---5--4--2---------0h2---------0h2-------5-5-2-|

|--0--0---3--2--0---------------4h5---------4h5-5-3-0-|



Then Go back to the verse





If u hav any problems or corrections email me at webmaster at tabs-database.com.com



Please Rate*

Added by tabs-database.com and our distinguished partners
Get this song at amazon.com      Ebay     Ringtones Ringtones  


Learn to play: Songwriting, Piano, Harmonica, Guitar

Related Ac Dc Tabs

Can I Sit Next To You tabs
Furor tabs
Hells Bells tabs
Aint Noise Pollution tabs
Two tabs
Lets Get It Up tabs
Back In Black (beggining) tabs
Hard As A Rock G tabs
Back In Black Hole Thing 100% Right tabs
Dirty Deeds tabs
Boom Boom tabs
Cyberspace tabs
High Way To Hell tabs
Hells Bells G tabs
If You Want Blood (you've Got It) tabs
Bacx In Blacx tabs
Rising Power tabs
Highway To Hell tabs
Let There Be Rock tabs
Shake Your Foundations tabs


Guitar Tabs









All tabs are property and copyright of their owners. All tabs provided for educational purposes only. Privacy Policy, DMCA