Ac Dc

Thats The Way I Wanna Rock Tabs



More from Ac Dc

Ac Dc Tabs
Ac Dc Chords
Ac Dc Bass
Ac Dc Lyrics



this is pretty much everything but the solo, in more time i will have the solo for you

|----------------------------|
|----------------------------|
|----------------------------|
|-----0-1-2---------0-1-2----|
|-0-4-------0---2-4-------0--|
|----------------------------|
(intro, 4 times)

|---------------------------------|
|-----3---------------------------|
|-2-2-2---------------------------|
|-2-2-0-----0-1-2---------0-1-2---|
|-0-0---0-4-------0---0-4-------0-|
|---------------------------------|

party gonna happen at the Union Hall

|----------------------------|
|----------------------------|
|----------------------------|
|-----0-1-2---------0-1-2----|
|-0-4-------0---2-4-------0--|
|----------------------------|

shakin' to the rhythm of everybody's ball

|----------------------------|
|----------------------------|
|----------------------------|
|-----0-1-2---------0-1-2----|
|-0-4-------0---2-4-------0--|
|----------------------------|

pickin' up my woman in my chevrolet

|----------------------------|
|----------------------------|
|----------------------------|
|-----0-1-2---------0-1-2----|
|-0-4-------0---2-4-------0--|
|----------------------------|

glory halelujah gonna rock the night away

|-------------------------------------------------------------------------------------------------------------|
|-----3-------------------------------------------------------------------------------------------------------|
|-2-2-2-------------------------------------------------------------------------------------------------------|
|-2-2-0-----0-1-2--------0-1-2--------0-1-2--------0-1-2--------0-1-2--------0-1-2--------0-1-2--------0-1-2--|
|-0-0---0-4-------0--2-4-------0--0-4-------0--2-4-------0--0-4-------0--2-4-------0--0-4-------0--2-4------0-|
|-------------------------------------------------------------------------------------------------------------|
(chorus riff)
we're gonna roll roll roll, roll roll roll, we're gonna take this town, turn it around,
we're gonna roll roll roll

there's a blue suede boppin' on her high-heel shoe

|----------------------------|
|----------------------------|
|----------------------------|
|-----0-1-2---------0-1-2----|
|-0-4-------0---2-4-------0--|
|----------------------------|

rollin' round together like a wreckin' crew

|----------------------------|
|----------------------------|
|----------------------------|
|-----0-1-2---------0-1-2----|
|-0-4-------0---2-4-------0--|
|----------------------------|

a be ba ba lou la baby what i say

|----------------------------|
|----------------------------|
|----------------------------|
|-----0-1-2---------0-1-2----|
|-0-4-------0---2-4-------0--|
|----------------------------|

you gotta get a dose of rock 'n' rollin' each and every day

|-------------------------------------------------------------------------------------------------------------|
|-----3-------------------------------------------------------------------------------------------------------|
|-2-2-2-------------------------------------------------------------------------------------------------------|
|-2-2-0-----0-1-2--------0-1-2--------0-1-2--------0-1-2--------0-1-2--------0-1-2--------0-1-2--------0-1-2--|
|-0-0---0-4-------0--2-4-------0--0-4-------0--2-4-------0--0-4-------0--2-4-------0--0-4-------0--2-4------0-|
|-------------------------------------------------------------------------------------------------------------|

we're gonna roll roll roll, roll roll roll, we're gonna take this town, turn it around,
we're gonna roll roll roll

|-----------3-----------------|
|-----3-----2-2---3-----------|
|-2---2-2---0-2---2-2---2-2-2-|
|-2---0-2-----0---0-2---2-2-2-|
|-0-----0-----------0---0-0-0-|
|-----------------------------|
(chorus riff 2)

we're gonna blow up my video, shut down by radio, told boss man where to go, turned up my
brain control, that's the way i wanna rock 'n' roll, that's the way i wanna rock 'n' roll


Get this song at amazon.com      Ebay     Ringtones Ringtones  


Learn to play: Songwriting, Piano, Harmonica, Guitar

Related Ac Dc Tabs

Furor tabs
Hells Bells (full) tabs
Problem Child Intro tabs
Bonny tabs
Jailbreak tabs
Tnt 100% tabs
Ball Breaker tabs
Highway To Hell (solo) tabs
Tnt Live tabs
Moneytalks tabs
Hail Caeser tabs
Dirty Deeds tabs
Fling Thing tabs
Razor's Edge, The tabs
You Shook Me All Night Long Solo tabs
Its A Long Way To The Top tabs
D T tabs
Gone Shootin tabs
Touch To Much tabs
Dt tabs


Guitar Tabs









All tabs are property and copyright of their owners. All tabs provided for educational purposes only. Privacy Policy, DMCA