Ac Dc

T.n.t Tabs



More from Ac Dc

Ac Dc Tabs
Ac Dc Chords
Ac Dc Bass
Ac Dc Lyrics




Intro
e|-------------------------------------------------------------------|
B|-------------------------------------------------------------------|
G|-------------------------------------------------------------------|
D|-2-----------------------------------------------------------------|
A|-2-----------------------------------------------------------------|
E|-0-----------------------------------------------------------------|
Verse
e|-------------------------------------------------------------------|
B|-------------------------------------------------------------------|
G|-------------------------------------------------------------------|
D|-2--5--7--7-5-7-5-2--5--7--7-5-7-5-2-------------------------------|
A|-2--5--7--7-5-7-5-2--5--7--7-5-7-5-2-------------------------------|
E|-0--3--5--5-3-5-3-0--3--5--5-3-5-3-0-------------------------------|
x x x x x x x
Verse Ending
e|-------------------------------------------------------------------|
B|-------------------------------------------------------------------|
G|-------------------------------------------------------------------|
D|-5--7--------------------------------------------------------------|
A|-5--7--------------------------------------------------------------|
E|-3--5--------------------------------------------------------------|
Chorus
e|-------------------------------------------------------------------|
B|-------------------------------------------------------------------|
G|-------------------------------------------------------------------|
D|-7-5-2-------------------------------------------------------------|
A|-7-5-2-------------------------------------------------------------|
E|-5-3-0-------------------------------------------------------------|
T.N.T

Outra
e|-----------------------------------------------------------|
B|-----------------------------------------------------------|
G|---3---4---5---6---7---8---9----10----11----12----13----14-|
D|-3-3-4-4-5-5-6-6-7-7-8-8-9-9-10-10-11-11-12-12-13-13-14-14-|
A|-3-1-4-2-5-3-6-4-7-5-8-6-9-7-10--8-11--9-12-10-13-11-14-12-|
E|-1---2---3---4---5---6---7----8-----9----10----11----12----|



Get this song at amazon.com      Ebay     Ringtones Ringtones  


Learn to play: Songwriting, Piano, Harmonica, Guitar

Related Ac Dc Tabs

Fire Your Guns tabs
Walk All Over U tabs
Stevens Song tabs
High Way To Hell tabs
Hells Bells tabs
If You Want Blood (you've Got It) tabs
Rock\'n Roll Singer tabs
Hail Caeser tabs
Walk All Over You Intro tabs
Sink The Pink tabs
Touch To Much tabs
Momma Lova tabs
Shook Me All Night Long tabs
Love Hungry Man (intro) tabs
Back In Black tabs
Dirty Deeds Done Dirt Cheap G tabs
Razors Edge tabs
Baby Please Dont Go2 tabs
Landslide tabs
Lets Get It Up tabs


Guitar Tabs









All tabs are property and copyright of their owners. All tabs provided for educational purposes only. Privacy Policy, DMCA