Ac Dc

She's Got Balls Bass Tabs



More from Ac Dc

Ac Dc Tabs
Ac Dc Chords
Ac Dc Bass
Ac Dc Lyrics




ACDC
She's Got Balls
Album: High Voltage
Tabbed by Sandro Monti
monti1989@hotmail.com

intro

G/---------------
D/---------------
A/--10-7-5-3-----
E/---------------

verse/ during solo

G/--------------------------------------
D/--------------------------------------
A/--0-0-0-0-0-0-0-0---0-0-0-0-0-0-0-0---
E/------------------3-----------------3-

pre-chorus

G/--------------
D/--------------
A/----------3-3-
E/--0---3-------

chorus

G/-----------------
D/-----------------
A/--0-0-0-0-0-0-3-3
E/-----------------

These are the most important parts of the song, sometimes its possible to
play some little improvised fill-ins.


hope its correct.



Get this song at amazon.com      Ebay     Ringtones Ringtones  


Learn to play: Songwriting, Piano, Harmonica, Guitar

Related Ac Dc Bass Tabs

Tnt bass
You Shook Me All Night Long bass
Back In Black (perfect) bass
Thunderstuck bass
Hihghway To Hell bass
T.n.t(improved) bass
Back In Black Bass Tab bass
Stiff Upper Lip bass
Dirty Deeds bass
Lets Get It Up bass
Back In Black (joes Way)(right Way) bass
Giving The Dog A Bone bass
Inject The Venom bass
Satellite Blues bass
Drty Deeds Done Dirt Cheap bass
Rock N Roll Singer bass
Dont Go bass
Sin City 99% Correct bass
Snowballed bass
Let There Be Rock (easy) bass


Guitar Tabs









All tabs are property and copyright of their owners. All tabs provided for educational purposes only. Privacy Policy, DMCA