Ac Dc

Rock N Roll Singer Tabs



More from Ac Dc

Ac Dc Tabs
Ac Dc Chords
Ac Dc Bass
Ac Dc Lyrics

Intro:
E|-------------------|--------------------|----------------------|
B|-------------------|--------------------|----------------------|
G|----------------4--|--4--------------4--|---------4---------1--|
D|----------------4--|--4--------------4--|----2----4----2----2--|
A|----------------2--|--2--------------2--|----0----2----0----2--|
E|-------------------|--------------------|-------------------0--|

|-------------------|-------------------|--------------------|
|-------------------|-------------------|--------------------|
|--1----------------|----------------4--|--4--------------4--|
|--2----------------|----------------4--|--4--------------4--|
|--2----------------|----------------2--|--2--------------2--|
|--0----------------|-------------------|--------------------|

|----------------------|-------------------|-------------------|
|----------------------|-------------------|-------------------|
|---------4---------1--|--1----------------|----------------4--|
|----2----4----2----2--|--2----------------|----------------4--|
|----0----2----0----2--|--2----------------|----------------2--|
|-------------------0--|--0----------------|-------------------|

|-----------------------|-----------------------|-----------------------|
|-----------------------|-----------------------|-----------------------|
|-------4----4-------4--|-------4----4-------4--|-------4----4-------4--|
|----2--4----4-------4--|----2--4----4-------4--|----2--4----4-------4--|
|----0--2----2----x--2--|----0--2----2----x--2--|----0--2----2----x--2--|
|-----------------------|-----------------------|-----------------------|

verse pattern:
|-----------------------|-----------------------|-----------------------|
|-----------------------|-----------------------|--------------------3--|
|-------4----4-------4--|-------4----4-------4--|-------4----4-------2--|
|----2--4----4-------4--|----2--4----4-------4--|----2--4----4-------0--|
|----0--2----2----x--2--|----0--2----2----x--2--|----0--2----2----x--0--|
|-----------------------|-----------------------|-----------------------|

end verse pattern:
--------------------|-----------------------|-----------------------|
--------------------|-----------------------|-----------------------|
--------1--------4--|-------4----4-------4--|-------4----4-------4--|
--------2--------4--|----2--4----4-------4--|----2--4----4-------4--|
--------2--------2--|----0--2----2----x--2--|----0--2----2----x--2--|
--------0-----------|-----------------------|-----------------------|


to chorus: doctor lawyerman
|-----------------------|-----------------------|-------------------|
|-----------------------|-----------------------|-------------------|
|-------4----4-------4--|-------4----4-------1--|----------------4--|
|----2--4----4-------4--|----2--4----4----x--2--|----------------4--|
|----0--2----2----x--2--|----0--2----2----x--2--|----------------2--|
|-----------------------|--------------------0--|-------------------|

but I... gonna be...
|------------------|-------------------|------------------|---------------------|
|------------------|-------------------|------------------|---------------------|
|------------------|--1----------------|------------------|--4--------2------1--|
|------------------|--2----------------|------------------|--4--------2------2--|
|------------------|--2----------------|------------------|--2--------0------2--|
|------------------|--0----------------|------------------|------------------0--|

gonna be...
|-------------------|---------------------|-------------------|
|----------3--------|---------------------|----------3--------|
|----------2--------|--4--------2------1--|----------2--------|
|----------0--------|--4--------2------2--|----------0--------|
|----------0--------|--2--------0------2--|----------0--------|
|-------------------|------------------0--|-------------------|

gonna be... gonna be...
|---------------------|-------------------|---------------------|
|---------------------|----------3--------|---------------------|
|--4--------2------1--|----------2--------|--4--------2------1--|
|--4--------2------2--|----------0--------|--4--------2------2--|
|--2--------0------2--|----------0--------|--2--------0------2--|
|------------------0--|-------------------|------------------0--|

to verse:
|----------------------|-----------------------|-----------------------|
|----------------------|-----------------------|-----------------------|
|------1----1--1----1--|--1----1--1----1----4--|-------4----4-------4--|
|------2----2--2----2--|--2----2--2----2----4--|----2--4----4----x--4--|
|------2----2--2----2--|--2----2--2----2----2--|----0--2----2----x--2--|
|------0----0--0----0--|--0----0--0----0-------|-----------------------|

after 2nd chorus: gonna be...
|------------------|------------------|---------------------|
|------------------|------------------|---------------------|
|------------------|------------------|--4--------2------1--|
|------------------|------------------|--4--------2------2--|
|------------------|------------------|--2---------------2--|
|------------------|------------------|------------------0--|

|----------------------|-----------------------|------------------|
|----------------------|-----------------------|------------------|
|------1----1--1----1--|--1----1--1----1----4--|------------------|
|------2----2--2----2--|--2----2--2----2----4--|------------------|
|------2----2--2----2--|--2----2--2----2----2--|------------------|
|------0----0--0----0--|--0----0--0----0-------|------------------|

to solo:
|----------------------|--------------------|------------------|
|----------------------|--------------------|------------------|
|--4---------4----2----|--1--1--------------|------------------|
|--4----2----4----2----|--2--2--------------|------------------|
|--2----0----2----0----|--2--2--------------|------------------|
|----------------------|--0--0--------------|------------------|

end of solo:
|-------------------|-----------------------|-----------------------|
|-------------------|-----------------------|-----------------------|
|----------------4--|-------4----4-------4--|-------4----4-------4--|
|----------------4--|----2--4----4-------4--|----2--4----4-------4--|
|----------------2--|----0--2----2----x--2--|----0--2----2----x--2--|
|-------------------|-----------------------|-----------------------|

you can stick...
|-----------------------|-----------------------|------------------|
|-----------------------|-----------------------|------------------|
|-------4----4-------4--|-------4----4----------|------------------|
|----2--4----4-------4--|----2--4----4-------4--|------------------|
|----0--2----2----x--2--|----0--2----2----x--4--|------------------|
|-----------------------|-----------------0--2--|------------------|
Get this song at amazon.com      Ebay     Ringtones Ringtones  


Learn to play: Songwriting, Piano, Harmonica, Guitar

Related Ac Dc Tabs

Rock N Roll Make Noise Pollution tabs
Night Prowler tabs
Rock Your Heart Out tabs
Ride On Solo tabs
Guns For Hire tabs
Cyberspace tabs
Shook Me All Night Intro tabs
Cant Hold Me Back tabs
Hail Caesar tabs
Evil Walks tabs
Whats Next To The Moon Bass tabs
About To Rock tabs
Hells Bells This The Best One Here tabs
Give It Up tabs
Hells Bells G tabs
Rock & Roll Damnation tabs
Back In Black (full) tabs
Tnt tabs
Brainshake tabs
Stand Up tabs


Guitar Tabs









All tabs are property and copyright of their owners. All tabs provided for educational purposes only. Privacy Policy, DMCA