Ac Dc

Rock N Roll Aint Noise Pollution Bass Tabs



More from Ac Dc

Ac Dc Tabs
Ac Dc Chords
Ac Dc Bass
Ac Dc Lyrics




come in after guitar intro

e---------------------------------| 2x
a---------------------------------|
d---------------------------------|
g-4-5-7-5-5-7-3-0---4-5-7-5-5-3-0-|

e-----------------| 4x
a-----------------|
d-----------------|
g-0-0-0-3-5-5-5-7-|

e----------------------------| 1x
a----------------------------|
d----------------------------|
g-4~-5~-7~-3~---4~-5~-55555~-|

e---------------------------------| 2x
a---------------------------------|
d---------------------------------|
g-4-5-7-5-5-7-3-0---4-5-7-5-5-3-0-|

e-----------------| 4x
a-----------------|
d-----------------|
g-0-0-0-3-5-5-5-7-|

e----------------------------| 1x
a----------------------------|
d----------------------------|
g-4~-5~-7~-3~---4~-5~-55555~-|


e---------------------------------| 2x
a---------------------------------|
d---------------------------------|
g-4-5-7-5-5-7-3-0---4-5-7-5-5-3-0-|

solo
e-----------------| 4x
a-----------------|
d-----------------|
g-0-0-0-3-5-5-5-7-|

e----------------------------| 1x
a----------------------------|
d----------------------------|
g-4~-5~-7~-3~---4~-5~-55555~-|


e---------------------------------| 4x
a---------------------------------|
d---------------------------------|
g-4-5-7-5-5-7-3-0---4-5-7-5-5-3-0-|



Get this song at amazon.com      Ebay     Ringtones Ringtones  


Learn to play: Songwriting, Piano, Harmonica, Guitar

Related Ac Dc Bass Tabs

Baby, Please Don't Go bass
Show Business bass
Razor's Edge bass
Tnt Correct Version bass
Get It Hot bass
Jail Break bass
Let s get it up bass
It's A Long Way To The Top (if You Wanna Rock 'n' Roll) bass
Tnt (right Timeing) bass
Theres Gonna Be Some Rockin bass
T.n.t(improved) bass
Tnt bass
High Way To Hell bass
Hells Bells Adapted For Bass bass
Dont Go bass
Back In Black (complete) bass
Rock N Roll Aint Noise Pollution bass
You shock me all nigth long bass
Shook Me All Night Long bass
Stiff Upper Lip bass


Guitar Tabs









All tabs are property and copyright of their owners. All tabs provided for educational purposes only. Privacy Policy, DMCA