Ac Dc

Rock And Roll Ain't Noise Pollution (intro) Tabs



More from Ac Dc

Ac Dc Tabs
Ac Dc Chords
Ac Dc Bass
Ac Dc Lyrics




Song: Rock and Roll Ain't Noise Pollution
Artist: AC/DC
Album: Back in Black
Standard Tuning (E A D G B e)

|----------------------|-----------------------|-----------------------|
|--------0---2-------3-|------2-----2-----2----|------------0--2----3--|
|--------1---2-------4-|------2-----2-----2----|------------1--2----4--|
|----------------------|-----------------------|-----2-----------------|
|----------------------|------0-----0-----0----|-----2-----------------|
|----------------------|----------------------3|(3)--0-----------------|

|----------------------|-----------------------|
|------2-----2---------|-----------------------|
|------2-----2-------9-|----(9)/---------------|
|--------------------9-|----(9)/---------------|
|--------------------7-|----(7)/---------------|
|----------------3---0-|----(0)/---------------|



Get this song at amazon.com      Ebay     Ringtones Ringtones  


Learn to play: Songwriting, Piano, Harmonica, Guitar

Related Ac Dc Tabs

Satellite Blues Bass tabs
Thunderstruck (intro) tabs
Thunderstruct tabs
Shoot To Thrill Live tabs
Get It Hot tabs
Touch Too Much tabs
Its A Long Way To The Top(if You Wanna Rock N Roll) tabs
Meanstreak tabs
Given The Dog A Bone tabs
Overdose tabs
Put The Finger On You Intro tabs
You Shook Me All Night Long(intro) tabs
Walk All Over You tabs
Highway 2 Hell tabs
Back In Black Live tabs
Put The Finger On You tabs
Nervous Shakedown tabs
Lets Make It tabs
Fly On The Wall tabs
For Those About To Rock G tabs


Guitar Tabs









All tabs are property and copyright of their owners. All tabs provided for educational purposes only. Privacy Policy, DMCA