Ac Dc

Rock And Roll Ain Noise Pollution Tabs



More from Ac Dc

Ac Dc Tabs
Ac Dc Chords
Ac Dc Bass
Ac Dc Lyrics



By: ZATAN5000

Intro
|-------------||------------------|------------------|-----------------------||
|-------------||------------------|------------------|-----------------------||
|--1---2---4--||.--2---2---4------|-------1---2---4--|---2---2---4----------.||
|-------------||.-----------------|------------------|----------------------.||
|-------------||------------------|------------------|-----------------------||
|-------------||---------------3--|---0--------------|---------------3--0----||

Brian said :
Hey, there, all you middle men.
Throw away your fancy clothes. And while
you're out there sitting on a fence, so get of
your ass and come down here,
cause Rock'n'roll ain't no riddle man.
To me it makes good, good sense.
(--> it's chorus too)

Chicken-pickin (3 Times)
|-------------||------------------|------------------|-----------------------||
|--0---2---3--||---2---2---3------|-------0---2---3--|---2---2---3-----------||
|--1---2---4--||.--2---2---4------|-------1---2---4--|---2---2---4------9-.||
|-------------||.-----------------|---2--------------|------------------9-.||
|-------------||---0---0---0------|---2--------------|---0---0---0------7--||
|-------------||---------------3--|---0--------------|---------------3--0----||


E--------------|-------------------|-------------------|------------------|
B--0---2---3---|----2---2---3------|--------0---2---3--|---2---2----------|
G--1---2---4---|----2---2---4------|--------1---2---4--|---2---2-------1--|
D--------------|-------------------|---2---------------|---------------2--|
A--------------|----0---0---0------|---2---------------|---0---0-------2--|
E--------------|----------------3--|---0---------------|-----------3---0--|


E--------------|------------------|------------------|------------------------|
B--0---2---3---|---2---2---3------|-------0---2---3--|---2---2---3------------|
G--1---2---4---|---2---2---4------|-------1---2---4--|---2---2---4------9---|
D--------------|------------------|---2--------------|------------------9---|
A--------------|---0---0---0------|---2--------------|---0---0---0------7---|
E--------------|---------------3--|---0--------------|---------------3--0-----|


E--------------|------------------|------------------|------------------------|
B--0---2---3---|---2---2---3------|-------0---2---3--|---2---2---3------------|
G--1---2---4---|---2---2---4------|-------1---2---4--|---2---2---4------9-----|
D--------------|------------------|---2--------------|------------------9-----|
A--------------|---0---0---0------|---2--------------|---0---0---0------7-----|
E--------------|---------------3--|---0--------------|---------------3--0-----|

1st verse
---------
Heavy decibels are playin on my guitar. ...
E-----|---------------------|-----------------------|-------------------------
B-----|---------------------|-----------------------|-------------------------
G-----|-------------------2-|--------------------9--|-----------------2-------
D--2--|-------------------2-|--2---4---2----9----9--|-----------------2-------
A--2--|---2---4---5-------0-|--0---0---0----911----|-2---4---2-------0-------
E--0--|---0---0---0---3-----|-----------------------|-0---0---0---3-----------

Well just listenin 2 the rock ....
E---------------------|----------------------|--------------------------------
B---------------------|----------------------|--------------------------------
G--------------4------|-------------------2--|--------------------4---4-------
D--2---4---2-------6--|-------------------2--|-----4---2------------6---6-----
A--0---0---0----------|--2---4----5-------0--|-----0---0----------------------
E---------------------|--0---0----0---3------|--------------------------------

deaf, U wanna hear some more. ....
E----------------------------|------------------------------------------------
B----------------------------|------------------------------------------------
G-------------------------2--|---2---------2----2-----------------------------
D-------------------------2--|---2----4----2----2----4------------------------
A--2-----4-----2----------0--|---0----0----0----0----0------------------------
E--0-----0-----0-----3-------|----------------------------0-------------------


talkin' about the future, ....
E---------------------------------------|-------------------------------------
B----------------------3----------------|----4--------------------------------
G--------9-------------2----------------|----4--------------9-----------------
D--------9-------------0----------------|----4--------------9-----------------
A--------7-------------0-------------2--|----2--------------7--------------7--
E--------0------------------------------|-------------------0--------------0--

Always be with us...
E-------------------------------------|---------------------------------------
B---------------------3------------4--|---4---4---4---4---4---4---4---4-------
G----9----------------2------------4--|---4---4---4---4---4---4---4---4-------
D----9----------------0------------4--|---4---4---4---4---4---4---4---4-------
A----7----------------0------------2--|---2---2---2---2---2---2---2---2-------
E----0--------------------------------|---------------------------------------

Never gonna die. Rock'N' ...
E----------------------------------------|------------------------------------
B----4-------4-------4------1----2----3--|----2------2------3-----------------
G----4-------4-------4------0----2----4--|----2------2------4-----------9-----
D----4-------4-------4-------------------|----2------2------------------9-----
A----2-------2-------2-------------------|----0------0------0-----------7-----
E----------------------------------------|-------------------------3----0-----

Rock'n' Roll Ain't gonna die ....
E--------------|-------------------|-------------------|---------------------|
B--0---2---3---|----2---2---3------|--------0---2---3--|---2---2---3---------|
G--1---2---4---|----2---2---4------|--------1---2---4--|---2---2---4------1--|
D--------------|----2---2----------|---2---------------|---2---2----------2--|
A--------------|----0---0---0------|---2---------------|---0---0----------2--|
E--------------|----------------3--|---0---------------|--------------3---0--|

Rock'n' Roll It ....
E--------------|--------------------|------------------||
B--0---2---3---|----2---2-----------|------------------||
G--1---2---4---|----2---2-------9^^-|-^^^^^^^^^^^-----.||
D--------------|----2---2-------9^^-|-^^^^^^^^^^^-----.||
A--------------|----0---0-------7^^-|-^^^^^^^^^^^------||
E--------------|------------3---0---|------------------||


2nd verse
---------

I took a look inside your bedroom ...
E-----|---------------------|-----------------------|-------------------------
B-----|---------------------|-----------------------|-------------------------
G-----|-------------------2-|--------------------9--|-----------------2-------
D--2--|-------------------2-|--2---4---2----9----9--|-----------------2-------
A--2--|---2---4---5-------0-|--0---0---0----911----|-2---4---2-------0-------
E--0--|---0---0---0---3-----|-----------------------|-0---0---0---3-----------

Well I asked U if U wanted any ....
E---------------------|----------------------|--------------------------------
B---------------------|----------------------|--------------------------------
G--------------4------|-------------------2--|--------------------4---4-------
D--2---4---2-------6--|-------------------2--|-----4---2------------6---6-----
A--0---0---0----------|--2---4----5-------0--|-----0---0----------------------
E---------------------|--0---0----0---3------|--------------------------------

wanna Rock 'n' Roll Instead....
E----------------------------|------------------------------------------------
B----------------------------|------------------------------------------------
G-------------------------2--|---2---------2----2-----------------------------
D-------------------------2--|---2----4----2----2----4------------------------
A--2-----4-----2----------0--|---0----0----0----0----0------------------------
E--0-----0-----0-----3-------|----------------------------0-------------------


talkin' about the future...
E---------------------------------------|-------------------------------------
B----------------------3----------------|----4--------------------------------
G--------9-------------2----------------|----4--------------9-----------------
D--------9-------------0----------------|----4--------------9-----------------
A--------7-------------0-------------2--|----2--------------7--------------7--
E--------0------------------------------|-------------------0--------------0--

Always be with us. ...
E-------------------------------------|---------------------------------------
B---------------------3------------4--|---4---4---4---4---4---4---4---4-------
G----9----------------2------------4--|---4---4---4---4---4---4---4---4-------
D----9----------------0------------4--|---4---4---4---4---4---4---4---4-------
A----7----------------0------------2--|---2---2---2---2---2---2---2---2-------
E----0--------------------------------|---------------------------------------


Never gonna die. Rock'N' ....
E----------------------------------------|------------------------------------
B----4-------4-------4------1----2----3--|----2------2------3-----------------
G----4-------4-------4------0----2----4--|----2------2------4-----------9-----
D----4-------4-------4-------------------|----2------2------------------9-----
A----2-------2-------2-------------------|----0------0------0-----------7-----
E----------------------------------------|-------------------------3----0-----

Rock'n' Roll Ain't gonna ...
E--------------|-------------------|-------------------|---------------------|
B--0---2---3---|----2---2---3------|--------0---2---3--|---2---2---3---------|
G--1---2---4---|----2---2---4------|--------1---2---4--|---2---2---4------1--|
D--------------|----2---2----------|---2---------------|---2---2----------2--|
A--------------|----0---0---0------|---2---------------|---0---0----------2--|
E--------------|----------------3--|---0---------------|--------------3---0--|

Rock'n' Roll It will ...
E--------------|--------------------|------------------||
B--0---2---3---|----2---2-----------|------------------||
G--1---2---4---|----2---2-------9^^-|-^^^^^^^^^^^-----.||
D--------------|----2---2-------9^^-|-^^^^^^^^^^^-----.||
A--------------|----0---0-------7^^-|-^^^^^^^^^^^------||
E--------------|------------3---0---|------------------||



(Solo)
E----------------------------------------------------------------------------
B--------------2--2^^----2--2^^--------5------8--8--8-----------9--9-------
G--2(4)2--4---3--3^^----2--2^^----6-----6---9--9--9---9-9--9-----9-------
D-------------------------------------------------------------------9-------
A----------------------------------------------------------------------------
E----------------------------------------------------------------------------


E----------------------------------------------------------12--12--15------
B----------9--9------------15------------------15----------12--12--14------
G----------9--9----14(16)------(16)14--12--14------14--12--------------------
D---11__9--9--9--------------------------------------------------------------
A----------------------------------------------------------------------------
E----------------------------------------------------------------------------


E----------------------------------------------------------------------------
B---15-----------------------------------------------------------------------
G---14-----------------------------------------------------------------------
D----------------------------------------------------------------------------
A----------------------------------------------------------------------------
E----------------------------------------------------------------------------


Get this song at amazon.com      Ebay     Ringtones Ringtones  


Learn to play: Songwriting, Piano, Harmonica, Guitar

Related Ac Dc Tabs

Problem Child tabs
Beating Around Te Bush tabs
Tnt Correct Version tabs
If You Want Blood tabs
Thunderstuct tabs
Dirty Eyes tabs
Back In Black (full) tabs
Thunderstruck tabs
Jack, The tabs
Back In Black Solo tabs
Four tabs
Schools Days tabs
Touch Too Much tabs
Back In Business tabs
Hell Aint A Bad Place To Be tabs
Rock & Roll Damnation tabs
Bedlam In Belgium tabs
Dog Eat Dog tabs
Dirty Deeds Done Dirt Cheap Intro tabs
Boogie Man tabs


Guitar Tabs









All tabs are property and copyright of their owners. All tabs provided for educational purposes only. Privacy Policy, DMCA