Ac Dc

Razors Edge Bass Tabs



More from Ac Dc

Ac Dc Tabs
Ac Dc Chords
Ac Dc Bass
Ac Dc Lyrics




G|---9---7-----5-----7------9---7-----5-----7--------|
D|-----7---7-----5-----7------7---7-----5------------|
A|-0---------0-----0------00--------0-----0---3-2-0--|
E|---------------------------------------------------|




Intro#2 (you don't play anything for about 49 seconds bars then:)
G|----------------|----------------|
D|----------------|----------------|
A|----------------|-------------3-2|
E|----------------|----------------|

G|----------------|----------------|
D|----------------|----------------|
A|-0--------------|----------------|
E|----------------|----------------|


G|----------------|----------------|
D|----------------|----------------|
A|-0--------------|-------------3-2|
E|----------------|----------------|

G|----------------|----------------|
D|----------------|----------------|
A|-0---0-0-0-0-0-0|-0-0-0-0-0-0-0-0|
E|----------------|----------------|

G|----------------|----------------|
D|----------------|----------------|
A|-0-0-0-0-0-0-0-0|-0-0-0-0-0-0-3-2|
E|----------------|----------------|

G|----------------|----------------|
D|----------------|----------------|
A|-0---0-0-0-0-0-0|-0-0-0-0-0-0-0-0|
E|----------------|----------------|

G|----------------|----------------|
D|----------------|-5--------------|
A|-0-0-0-0-0-0-0-0|-------5-----3-2|
E|----------------|----------------|

G|----------------|----------------|
D|----------------|----------------|
A|-0---0-0-0-0-0-0|-5-5-5-5-3--2---|
E|----------------|----------------|

G|----------------|----------------|
D|----------------|----------------|
A|-0-0-0-0-0-0-0-0|-5-5-5-5-3--2---|
E|----------------|----------------|

Verse 1:
G| ----------------|---------------- |
D|*----------------|----------------*|
A|*-0-0-0-0-0-0-0-0|-5-5-5-5-3--2---*|
E| ----------------|---------------- |

Pre-chorus:
G| ----------------|---------------- |
D|*----------------|----------------*|
A|*-5-5-5-5-5-5-5-5|-5-5-5-5-3------*|
E| ----------------|-------------3-- |

G|----------------|----------------|
D|----------------|----------------|
A|-7-7-7-7-7-7-7-7|-7-7-7-7-5------|
E|----------------|-------------5--|

G|----------------|----------------|
D|----------------|----------------|
A|----------------|---------5------|
E|-0-0-0-0-0-0-0-0|-0-0-0-0-----5--|

Chorus:
G|----------------|-----|----------------|
D|----------------|-?//-|----------------|
A|-0-0-0-0-0-0-0-0|-//?-|-0-0-0-0-0-0-3-2|
E|----------------|-----|----------------|

G|----------------|----------------|
D|----------------|----------------|
A|-0---0-0-0-0-0-0|-0-0-0-0-0-0-0-0|
E|----------------|----------------|

G|----------------|----------------|
D|----------------|-5--------------|
A|-0-0-0-0-0-0-0-0|-------5-----3-2|
E|----------------|----------------|

G|----------------|----------------|
D|----------------|----------------|
A|-0---0-0-0-0-0-0|-5-5-5-5-3--2---|
E|----------------|----------------|

G|----------------|----------------|
D|----------------|----------------|
A|-0-0-0-0-0-0-0-0|-5-5-5-5-3--2---|
E|----------------|----------------|

Verse 2
Pre-chorus
Chorus

Then:
G|----------------|----------------|
D|----------------|----------------|
A|-0---0-0-0-0-0-0|-0-0-0-0-0-0-0-0|
E|----------------|----------------|

G|----------------|----------------|
D|----------------|----------------|
A|-0-0-0-0-0-0-0-0|-0-0-0-0-0---0--|
E|----------------|---------------3|

Bridge:
G| ----------------|---------------- |
D|*----------------|----------------*|
A|*-0------3-------|-5-----------0--*|
E| ----------------|---------------3 |

Guitar Solo:
G| ----------------|---------------- |
D|*----------------|----------------*|
A|*-5-5-3-5-5-5-3-5|-5-5-5-5-3------*|
E| ----------------|-------------3-- |

G|----------------|----------------|
D|----------------|----------------|
A|-7-7-5-7-7-7-5-7|-7-7-7-7-5------|
E|----------------|-------------5--|

G|----------------|----------------|
D|----------------|---------5------|
A|----------------|-------------5--|
E|-0-0-0-0-0-0-0-0|-0-0-0-0--------|

Chorus:
G|----------------|-----|----------------|
D|----------------|-?//-|----------------|
A|-0-0-0-0-0-0-0-0|-//?-|-0-0-0-0-0-0-3-2|
E|----------------|-----|----------------|

G|----------------|----------------|
D|----------------|----------------|
A|-0---0-0-0-0-0-0|-0-0-0-0-0-0-0-0|
E|----------------|----------------|

G|----------------|----------------|
D|----------------|----------------|
A|-0-0-0-0-0-0-0-0|-3-----5-----3-2|
E|----------------|----------------|

G|----------------|-----------------|
D|----------------|-----------------|
A|-0---0-0-0-0-0-0|-0-0-0-0-0-5-7-10|
E|----------------|-----------------|

G|----------------|----------------|
D|----------------|----------------|
A|-0-0-0-0-0-0-0-0|-3-----5-----3-2|
E|----------------|----------------|

G|----------------|----------------|
D|----------------|----------------|
A|-0---0-0-0-0-0-0|-0-0-0-0-0-0-0-0|
E|----------------|----------------|

G|----------------|----------------|
D|----------------|----------------|
A|-0-0-0-0-0-0-0-0|-3-----5-----0--|
E|----------------|---------------3|

Ending:
G| ----------------|---------------- |
D|*----------------|----------------*|
A|*-0------3-------|-5-----------0--*|
E| ----------------|---------------3 |

G|--- |
D|----|
A|-0--|
E|----|



Get this song at amazon.com      Ebay     Ringtones Ringtones  


Learn to play: Songwriting, Piano, Harmonica, Guitar

Related Ac Dc Bass Tabs

Are You Ready bass
Big Guns bass
Flick Of The Switch bass
Help bass
T.n.t bass
You Shook Me All Night Long (guitar Intro) bass
Rock 'n' Roll Ain't Noise Pollution bass
Highway To Hell (perfect) bass
Boogie Man bass
Whole Lotta Rosie bass
Thundersrtuck bass
Stiff Upper Lip bass
The Jack bass
Hells Bells (righty Right Right) bass
For Those About To Rock(we Salute You) bass
Back In Black Bass Tab bass
Tnt bass
Love Hungry Man bass
Got You By The Balls bass
Hells Bells bass


Guitar Tabs









All tabs are property and copyright of their owners. All tabs provided for educational purposes only. Privacy Policy, DMCA