Ac Dc

Razor's Edge, The Tabs



More from Ac Dc

Ac Dc Tabs
Ac Dc Chords
Ac Dc Bass
Ac Dc Lyrics

AC/DC - The Razor's Edge

This song is 100% correct! Enjoy
Symbols
h=hammer on
p=pull off
/=slide up
=slide down
~=vibrato
X=Muffled Strings
()X=pick slide down
PM------PM=Palm Mute
{}=pinch harmonic
()=bend
[]=release bend
#=tremolo picking
(X)=Tap with pick on Finger board
TR=Trill

INTRO
e--------------|------------------------------------------------------|
B--------1h3/5-|------0-1-3---0-1-----0-------------------------------|
G--------------|------------2-----0h2----p0-2-----0-------------------|
D--------------|------------------------3p----2-3---0h2h3p2p0-2-0-----|
A--------------|--------------------------------------------------2-2-|
E-0------------|------------------------------------------------------|

e---------------------------------|
B---------------------------------|
G-------------------------------2-|
D-0-----------0---------------0-2-|
A---3p2p0-------3-----0----3~~--0-|
E---------0h1-----1h3---1---------|

RHYTHM FIGURE 1
e-0---0------0-------|---0------0--------0------0--------0------0-----|
B-0---0------0-------|---0------0--------0------0--------0------0-----|
G-4---4h5p2--2h4h5p4-|---4h5p2--2h4h5p4--4h5p2--2h4h5p4--4h5p2--2h4h5-|
D--------------------|------------------------------------------------|
A--------------------|------------------------------------------------|
E--------------------|------------------------------------------------|

RHYTHM FIGURE 2 PLAY 20 TIMES
e-----0-----0-----0-----0-----0-|-----0-----0-----0-----0-----0-|
B-----0-----0-----0-----0-----0-|-----0-----0-----0-----0-----0-|
G-2h4---4h5---2h4---4h5---2h4---|-2h4---4h5---2h4---4h5---2h4---|
D-------------------------------|-------------------------------|
A-------------------------------|-------------------------------|
E-------------------------------|-------------------------------|

FIGURE 3
e---------------------------|----------------------------|---------------------------|
B---------------------------|----------------------------|---------------------------|
G---------------------------|----------------------------|-4----4/5---2----2/4----|
D---------------------------|----------------------------|----------0----------------|
A---------------------------|-(X)-(15)XX--(15)XXX-|---------------------------|
E------(X)-(X)-(X)-(X)--(X)-|-(X)-(15)XX--(15)XXX-|---------------------------|

RHYTHM FIGURE 4 Angus Plays This Part        *|* Malcolm Plays this Part
e--------------------|------------------------|--------------------|--------------------|
B--------------------|------------------------|------------2(3)2p0-|------------2(3)2p0-|
G--------------------|------------------------|------------2(3)2p0-|------------2(3)2p0-|
D-2---2---2----------|----2---2---2-----------|-2---2---2----------|-2---2---2----------|
A-2---2---2--0h2p0---|----2---2---2---0h2p0---|-2---2---2----------|-2---2---2----------|
E-0---0---0--------3-|-0--0---0---0---------3-|-0---0---0----------|-0---0---0----------|

Angus' Part Continued                      *|* Malcolm's Part Continued
e--------------------|----------------------|--------------------|--------------------|
B--------------------|----------------------|------------2(3)2p0-|------------2(3)2p0-|
G--------------------|----------------------|------------2(3)2p0-|------------2(3)2p0-|
D-2---2---2----------|----2---2---2---------|-2---2---2----------|-2---2---2----------|
A-2---2---2--0h2p0---|----2---2---2-0h2p0---|-2---2---2----------|-2---2---2----------|
E-0---0---0--------3-|-0--0---0---0-------3-|-0---0---0----------|-0---0---0----------|

Figure 5 Angus' Part (x8)*|* Malcolm's Part (x2)
e-------------------------|----------------------------------------3-|
B-----8-----8-----8-----8-|-3--------------------------------------3-|
G-5h7---5h7---5h7---5h7---|-2--------------------------------------0-|
D-------------------------|-0--------------------------------------0-|
A-------------------------|-0----------------------------------------|
E-------------------------|----------------------------------------3-|

Guitar Solo (Malcolm Plays RHYTHM FIGURE 2 and 3 throughout)
e--------------------------------|-----------------------|----------------------------
B-8-(10)--8-7-5-5h7p5------------|-----------------------|--------------5-5-----------
G---------------------7-5--------|TR---------------------|-7-9-9~~-7(9)-----7(9)-7(9)-
D-------------------------7-7~~~~|-5-(7)---5h7~~~~-2-2-0-|----------------------------
A--------------------------------|-----------------------|----------------------------
E--------------------------------|-----------------------|----------------------------

e-----|-10------10---10---10-----------10----------------|--------
B-5-8-|-10(12)-(12)-(12)-(12)-[12]10p8-10(12)10----------|--------
G-----|--------------------------------------------------|-2(4)---
D-----|--------------------------------------------------|--------
A-----|---------------------------------------------(2)/-|--------
E-----|--------------------------------------------------|--------

e----------------------------|------0-3--------------------------------0h3p2p0-
B----------------------------|----------3p2p0----------------------------------
G-2(4){2}{4}{2}{4}{2}0---{2}-|-2(4)-----------3p2p0----------------------------
D----------------------2-----|----------------------3p2p0----------------------
A----------------------------|----------------------------3p2p0----------------
E----------------------------|----------------------------------3-(5)3---------

e----------------------------------------|------------------------|
B-3p2p0----------------------------------|------------------------|
G-------2h4p2p0--------------------------|------------------------|
D---------------2h4p2p0------------------|-------5---7-5----------|
A-----------------------2h4p2p0---5--(6)-|-7-7~~~--7--------------|
E-------------------------------3--------|------------------5p3p0-|

e-----------------------------------------------------------------------|
B------------------------------------8-(10)-10(12)(11)(12)(11)-(11)(12)-|
G------------------------------7-9-9------------------------------------|
D-7hX-5hX-7-(8)7p5-7hX-5hX-7h9------------------------------------------|
A-----------------------------------------------------------------------|
E-----------------------------------------------------------------------|

e---0h12p0-15-14p12-14p12-------------------------------------------------------|
B------------------------15p12-14p12h14p12-------------------------------------|
G-------------------------------------------15p12h14p12----12h14p12-------------|
D-------------------------------------------------------14----------14-12-------|
A-------------------------------------------------------------------------14p12-|
E-------------------------------------------------------------------------------|

e---------------------------------0-|------|------------------------------------------|
B---------------------------------0-|------|------------------------------------------|
G-----------------------------------|-2(4)-|-5p4p2-5p4p2-5p4p2-5p4p2----------/14(16)-|
D-----------------------------------|------|-------------------------2~~~~------------|
A-10h12p10-10(12)10(12)10----------|------|------------------------------------------|
E--------------------------/17-----|------|------------------------------(3)--------|

e-12------------------------------------------------------------|
B----12-15---------------------------------------------------12-|
G----------14-14(16)(16)(16)(15)(16)(15)(16)(15)(16)14p12-------|
D---------------------------------------------------------14----|
A---------------------------------------------------------------|
E---------------------------------------------------------------|

e-12---------------------|------------------------------|------------------------------
B----12------------------|------------------------------|-15(17)-15(17)-15(17)-15(17)-
G-------12(13)~~~~~------|-14-12-----12-14-12----12-----|------------------------------
D--------------14~~---12-|-------14~----------14----14~~|------------------------------
A------------------------|------------------------------|------------------------------
E------------------------|------------------------------|------------------------------

e---|---------------12-12----|-------------------------------------15-|
B---|-----------/12-------12-|-15(17)-15(17)-15(17)(17)~~~~15(17)----|
G---|------------------------|----------------------------------------|
D-X-|-XXXX--------------|----------------------------------------|
A-X-|-XXXX--------------|----------------------------------------|
E---|------------------------|----------------------------------------|

e---------15---------------15----15\-----15(17)-|
B-15-(17)----15(17)-15(17)----15(17)------------|
G------------------------------------------------|
D-------------------------------------0-0--------|
A------------------------------------------------|
E------------------------------------------------|

e-15-12-------------------------|-------------|----------------------------|
B-------15--------------2(3)2p0-|-/3--2(3)2p0-|----------------------------|
G-------------14(16)~~~~2(3)2p0-|-/4--2(3)2p0-|-2h3p2p0-2(4)-0-{2}{4}-2(4)-|
D----------14-------------------|--#----------|----------------------------|
A-------------------------------|--#----------|----------------------------|
E-------------------------------|--#----------|----------------------------|

e-------------------------------------------------------0-------------------|---|
B-----------------------------------------------------0---0-3---------------|---|
G-(3)--2-4h5p4p2-5p4p2-2h4--2h4-2h4--2~~~~~~2(4)2-(4)---------X-2h4p2p0-2-0-|---|
D---------------------------------------------------------------------------|-2-|
A---------------------------------------------------------------------------|-2-|
E---------------------------------------------------------------------------|-0-|
Get this song at amazon.com      Ebay     Ringtones Ringtones  


Learn to play: Songwriting, Piano, Harmonica, Guitar

Related Ac Dc Tabs

Crabsody In Blue tabs
Ruff Stuff tabs
The Jack tabs
Safe In New York City tabs
Whiskey On The Rocks tabs
Shoot To Thrill tabs
Shook Me All Night Long tabs
Touch Too Much tabs
Gone Shootin tabs
U Shook Me All Night Long tabs
Problem Child tabs
All Screwed Up tabs
Gimme A Bullet tabs
Have A Drink tabs
Walk All Over You tabs
Burnin' Alive tabs
Moneytalks Solo tabs
Give It Up tabs
Highway To Hell (official) tabs
Stick Around tabs


Guitar Tabs









All tabs are property and copyright of their owners. All tabs provided for educational purposes only. Privacy Policy, DMCA