Ac Dc

Problem Child (i Believe To Be 100% Correct) Bass Tabs



More from Ac Dc

Ac Dc Tabs
Ac Dc Chords
Ac Dc Bass
Ac Dc Lyrics



Normal tuning
One of the greatest ever by AC/DC
and i love it! always listen to the classics

Tha verse
G----------------
D-------5--------
A-5---5---------
E---5-----------

Play this right before the chorus
G----------------------
D-55-------55------------
A---5555555-555555-----------
E------------------550000000550000000-------------

Da Chorus
G---------------------
D---------------------
A33335555555---333355555--------------
E55----------355----------------------

Tha Bridge right after the Chorus
G------------------------
D---------------------
A---------------------
E0000000000000

Play this during the Solo
G------------------
D--------------------
A------55-----------------
E777777--000000000-------------------

any critics show me the love at thawestsideniggaforeal@yahoo.com



Get this song at amazon.com      Ebay     Ringtones Ringtones  


Learn to play: Songwriting, Piano, Harmonica, Guitar

Related Ac Dc Bass Tabs

Thunderstuck bass
Dirty Eyes bass
Touch Too Much bass
Flick Of The Switch - Regular Tuning bass
Tnt bass
You shock me all nigth long bass
Rock And Roll Aint Noise Pollution bass
Are You Ready bass
Walk All Over You bass
Let Me Put My Love Into You bass
Breaking The Rules bass
Rock N Roll Singer bass
Back In Black bass
Whole Lotta Rosie (correction) bass
Let There Be Rock (easy) bass
Hail Caesar bass
Dirty Deeds bass
Ride On bass
Let There Be Rock bass
Its A Long Way To The Top bass


Guitar Tabs









All tabs are property and copyright of their owners. All tabs provided for educational purposes only. Privacy Policy, DMCA