Ac Dc

Problem Child Bass Tabs



More from Ac Dc

Ac Dc Tabs
Ac Dc Chords
Ac Dc Bass
Ac Dc Lyrics



From _Dirty Deeds Done Dirt Cheap_


VERSES - RIFF 1

G---------0-------0-------0-------0---
D---0---0---0---0---0---0---0---0-----
A-----0-------0-------0-------0-------
E-------------------------------------

RIFF 2

G-------------------------------------------------------------
D-------------------------------------------------------------
A-------5-5-5-5-5-----5-5-5-5-5-----5-5-5-5-5-----5-5-5-5-5---
E---3-3-----------3-3-----------3-3-----------3-3-------------

G---------------------------------------------
D---------------------------------------------
A---0---------0---------0---------0-----------
E-----0-0-0-0---0-0-0-0---0-0-0-0---0-0-0-0---

CHORUS

G-----------------------------------------------------------------
D-----------------------------------------------------------------
A---0-0-0-0-0-3-3-5-5-5-5-5-5-5-5-0-0-0-0-0-3-3-5-5-5-5-5-5-5-5---
E-----------------------------------------------------------------

G-----------------------------------------------------------
D-----------------------------------------------------------
A---0-0-0-0-0-3-3-5-5-5-5-5-5-5-5-0-0-0-0-0-----------------
E-------------------------------------------3-3-0-0-0-0-0---

DURING SOLO

G-------------------------------------------------------
D-------------0-0-2-2-2-2-2-2-----------0-0-2-2-2-2-2-2-
A---2-2-2-2-2-----------------2-2-2-2-2-----------------
E-------------------------------------------------------

G-------------------------------------------------------
D-------------0-0-2-2-2-2-2-2-----------0-0-2-2-2-2-2-2-
A---2-2-2-2-2-----------------2-2-2-2-2-----------------
E-------------------------------------------------------

G---------------------------------------------------------------------
D---------------------------------------------------------------------
A---0-0-0-0-0-2-2-5-5-5-5-5-5-5-5-5-0-0-0-0-0-2-2-5-5-5-5-5-5-5-5-5---
E---------------------------------------------------------------------

G---------------------------------------------------------------------
D---------------------------------------------------------------------
A---0-0-0-0-0-2-2-5-5-5-5-5-5-5-5-5-0-0-0-0-0-2-2-5-5-5-5-5-5-5-5-5---
E---------------------------------------------------------------------

G---------------------------------------------------------------------
D---------------------------------------------------------------------
A---------------------------------------------------------------------
E---0-0-0-0-0-0-0-0-0-0-0-0-0-0-0-0-0-0-0-0-0-0-0-0-0-0-0-0-0-0-0-0---



Get this song at amazon.com      Ebay     Ringtones Ringtones  


Learn to play: Songwriting, Piano, Harmonica, Guitar

Related Ac Dc Bass Tabs

Hells Bells Adapted For Bass bass
Soul Stripper bass
Let Me Put My Love Into You bass
Thundersrtuck bass
You Shook Me All Night Long bass
Kicked In The Teeth bass
Whole Lotta Rosie bass
Dirty Deeds bass
Rock N Roll Aint Noise Pollution bass
Hard As A Rock bass
If You Want A Blood bass
Hells Bells bass
C O D bass
Let There Be Rock (easy) bass
Dont Go bass
Thunder Struck bass
Money Talks bass
Razor's Edge bass
Baby Please Dont Go bass
You shock me all nigth long bass


Guitar Tabs









All tabs are property and copyright of their owners. All tabs provided for educational purposes only. Privacy Policy, DMCA