Ac Dc

Moneytalks Bass Tabs



More from Ac Dc

Ac Dc Tabs
Ac Dc Chords
Ac Dc Bass
Ac Dc Lyrics




Intro:
G:---------------
D:---------------(x4)
A:---------------
E:-3-3-3-3-3-3-3-
Verse 1:
G:-------------
D:-------------(x12)
A:---------7-7-
E:-3-3-3-3-----
Verse 2:
G:-------------
D:---------4---(x4)
A:-5-5-5-5---5-
E:-------------
Verse 3:
G:-------------(x3)
D:---------7---
A:-3-3-3-3---3-
E:-------------
Chorus:
G:---------------------(x4)
D:---------------------
A:-------7-6-4-6-4-2-0-
E:-3-3-3---------------
Pre-Solo:
G:-------------------
D:-------------------
A:-5-5-5-5-5-5-5-5-5-
E:-------------------
Ending:
G:---------------------
D:---------------------
A:----------3---5----5-
E:-3-3-3--3---0--------
Order:
Intro
Verse 1
Verse 2
Verse 3
Chorus
Verse 1
Verse 2
Verse 3
Chorus
Pre-Solo
Solo(play verse's 1,2,and 3)
After Solo(play the intro)
Chorus
Chorus
Verse 1(only twice)
Ending

Tell me if you think it's wrong. Thanks!



Get this song at amazon.com      Ebay     Ringtones Ringtones  


Learn to play: Songwriting, Piano, Harmonica, Guitar

Related Ac Dc Bass Tabs

Squealer bass
Hells Bells Modified Bass Part bass
Givin The Dog A Bone bass
Hard As A Rock bass
Big Balls bass
Can I Sit Next To You Girl bass
T.n.t(improved) bass
The Razors Edge bass
Theres Gonna Be Some Rockin bass
Snowballed bass
Jailbreak (revised) bass
Can't Stop Rock 'n' Roll bass
For Those About To Rock(we Salute You) bass
Ride On bass
Hail Caesar bass
Big Guns bass
Dirty Deads Done Dirt Cheap bass
Jailbreak bass
Sin City 99% Correct bass
Razors Edge bass


Guitar Tabs









All tabs are property and copyright of their owners. All tabs provided for educational purposes only. Privacy Policy, DMCA