Ac Dc

Moneytalks 100% Accurate (updated) Tabs



More from Ac Dc

Ac Dc Tabs
Ac Dc Chords
Ac Dc Bass
Ac Dc Lyrics



AC/DC - Moneytalks
Tabbed By: Trevor Hardy

I watched Angus Young play this on Live At Donington, except for the
solo, which I found somewhere on the internet. I played it with the recorded
Moneytalks and its dead on. Enjoy!


Intro:
e|-----------------------------------------------------------------|
b|-12-10-12-10-13--12-10-8-10-8---12-10-12-10-13--12-10-8-8-10-8---|
g|-0--0--0--0--0---0--0--0-0--0---0--0--0--0--0---0--0--0-0-0--0---|
d|-0--0--0--0--0---0--0--0-0--0---0--0--0--0--0---0--0--0-0-0--0---|
a|-----------------------------------------------------------------|
e|-----------------------------------------------------------------|

e|---------------------------------------------x----|
b|-12-10-12-10-13--12-10-8-10-8---12-10-12-10--3----|
g|-0--0--0--0--0---0--0--0-0--0---0--0--0--0---2----|
d|-0--0--0--0--0---0--0--0-0--0---0--0--0--0---0----|
a|--------------------------------------------------|
e|--------------------------------------------------|

e|-x-x----------x-x----------x-x----------x-x----------|
b|-3-3----------3-3----------3-3----------3-3----------|
g|-0-0----------0-0----------0-0----------0-0----------|
d|-0-0----------0-0----------0-0----------0-0----------|
a|-x-x---1b-----x-x---1b-----x-x---1b-----x-x---1b-----|
e|-3-3--3--3----3-3--3--3----3-3--3--3----3-3--3--3----|

Verse:
Tailored suits, chauffered cars...
e|-x-x----------x-x----------x-x----------x-x----------|
b|-3-3----------3-3----------3-3----------3-3----------|
g|-0-0----------0-0----------0-0----------0-0----------|
d|-0-0----------0-0----------0-0----------0-0----------|
a|-x-x---1b-----x-x---1b-----x-x---1b-----x-x---1b-----|
e|-3-3--3--3----3-3--3--3----3-3--3--3----3-3--3--3----|

e|-x-x----------x-x----------x-x----------x-x----------|
b|-3-3----------3-3----------3-3----------3-3----------|
g|-0-0----------0-0----------0-0----------0-0----------|
d|-0-0----------0-0----------0-0----------0-0----------|
a|-x-x---1b-----x-x---1b-----x-x---1b-----x-x---1b-----|
e|-3-3--3--3----3-3--3--3----3-3--3--3----3-3--3--3----|

e|-----------------------------------------|
b|-3-3-------3-3-------3-3-------3-3-------|
g|-2-2-------2-2-------2-2-------2-2-------|
d|-----0h3p------0h3p------0h3p------0h3p--|
a|-----------------------------------------|
e|-----------------------------------------|

e|-x-x--------x-x--------x-x--------x-x--------|
b|-x-x--------x-x--------x-x--------x-x--------|
g|-x-x--------x-x--------x-x--------x-x--------|
d|-2-2---1b---2-2---1b---2-2---1b---2-2---1b---|
a|-3-3--3--3--3-3--3--3--3-3--3--3--3-3--3--3--|
e|-0-0--------0-0--------0-0--------0-0--------|


Chorus:
e|-----------------------------------------------------------------|
b|-12-10-12-10-13--12-10-8-10-8---12-10-12-10-13--12-10-8-8-10-8---|
g|-0--0--0--0--0---0--0--0-0--0---0--0--0--0--0---0--0--0-0-0--0---|
d|-0--0--0--0--0---0--0--0-0--0---0--0--0--0--0---0--0--0-0-0--0---|
a|-----------------------------------------------------------------|
e|-----------------------------------------------------------------|

e|-----------------------------------------------------------------|
b|-12-10-12-10-13--12-10-8-10-8---12-10-12-10-13--12-10-8-8-10-8---|
g|-0--0--0--0--0---0--0--0-0--0---0--0--0--0--0---0--0--0-0-0--0---|
d|-0--0--0--0--0---0--0--0-0--0---0--0--0--0--0---0--0--0-0-0--0---|
a|-----------------------------------------------------------------|
e|-----------------------------------------------------------------|


Pre Solo: Play 9X
e|---|
b|-3-|
g|-2-|
d|-0-|
a|-0-|
e|---|


Solo:
e|-6b-3-3-3-3-3--6b-3-3-3-3-3-----3-3------3-3--6b-6b-6b-6b-6b--3-3-3|
b|-5b-3-3-3-3-3--5b-3-3-3-3-3--/8-3-3--/8--3-3--5b-5b-5b-5b-5b--3-3-3|
g|-------------------------------------------------------------------|
d|-------------------------------------------------------------------|
a|-------------------------------------------------------------------|
e|-------------------------------------------------------------------|

e|--------------------------------------------------------------------|
b|---15-15-15-15-15-15-15--15---------------------15------------------|
g|--(15)14(15)14(15)14(15)(15)^14^12-----14(15)---16--12-12--12-12----|
d|---------------------------------12^14------------------/14-----/17-|
a|--------------------------------------------------------------------|
e|--------------------------------------------------------------------|

e|--------------------------------------------------------------------|
b|----------------15--15--15----------------------------3-----3--5-3-/|
g|-12-12-12-/--12-14b-14b-14b--12v----------------------3-----3--5-3-/|
d|---------------------------------10h12h10/---5-5--5-5--3-5v---------|
a|------------------------------------------5/7---/7------------------|
e|--------------------------------------------------------------------|

e|---------------------------------------18b----18b-18b-18b----------|
b|--15-----x-15-----x-15-----x-15------x-----------------------------|
g|--14(15)-x-14b----x-14b----x-14b-----x-----------------------------|
d|-------------------------------------------------------------------|
a|-------------------------------------------------------------------|
e|-------------------------------------------------------------------|

Solo Outro: Play 2X
e|-----------------------------------------------------------------|
b|-12-10-12-10-13--12-10-8-10-8---12-10-12-10-13--12-10-8-8-10-8---|
g|-0--0--0--0--0---0--0--0-0--0---0--0--0--0--0---0--0--0-0-0--0---|
d|-0--0--0--0--0---0--0--0-0--0---0--0--0--0--0---0--0--0-0-0--0---|
a|-----------------------------------------------------------------|
e|-----------------------------------------------------------------|

Chorus: Play 4X
e|-----------------------------------------------------------------|
b|-12-10-12-10-13--12-10-8-10-8---12-10-12-10-13--12-10-8-8-10-8---|
g|-0--0--0--0--0---0--0--0-0--0---0--0--0--0--0---0--0--0-0-0--0---|
d|-0--0--0--0--0---0--0--0-0--0---0--0--0--0--0---0--0--0-0-0--0---|
a|-----------------------------------------------------------------|
e|-----------------------------------------------------------------|

Outro: Moneytalks!
e|-x-x----------x-x----------x-x----------x---------------x-|
b|-3-3----------3-3----------3-3----------3---------------3-|
g|-0-0----------0-0----------0-0----------0---------------0-|
d|-0-0----------0-0----------0-0----------0---------------0-|
a|-x-x---1b-----x-x---1b-----x-x---1b-----x---------------x-|
e|-3-3--3--3----3-3--3--3----3-3--3--3----3---------------3-|


Get this song at amazon.com      Ebay     Ringtones Ringtones  


Learn to play: Songwriting, Piano, Harmonica, Guitar

Related Ac Dc Tabs

Who Made Who tabs
Thats The Way I Wanna Rock N Rock tabs
You Shook Me All Night Long Solo tabs
The Jack Live tabs
Spellbound tabs
If You Dare tabs
Rock N Roll Aint Noise Pollution Solo tabs
Big Gun tabs
Tnt 100% tabs
Hard As A Rock tabs
Rising Power tabs
Hard As A Rock G tabs
All Screwed Up tabs
Cant Hold Me Back tabs
Twos Up tabs
Whiskey On The Rocks tabs
Rock And Roll Ain't Noise Pollution (intro) tabs
Rocker tabs
I Put The Finger On You tabs
High Way To Hell tabs


Guitar Tabs









All tabs are property and copyright of their owners. All tabs provided for educational purposes only. Privacy Policy, DMCA