Ac Dc

Its A Long Way To The Top Bass Tabs



More from Ac Dc

Ac Dc Tabs
Ac Dc Chords
Ac Dc Bass
Ac Dc Lyrics



Main riff
G|-------------------------------------|
D|-------------------------------------|
A|-------------------------------------|
E|-6-8-x-8-----6-8-x-8-----------------|repeat

chorus
G|-------------------------------------|
D|-------------------------------------|
A|-----------5-------------------------|
E|---5--3-------5----------------------| or just do verse

break bit (between verse and chorus)
G|-------------------------------------|
D|-------------------------------------|
A|----------------5--------------------|
E|-6-8-x-8-----3----5------------------|

Brought to you by the BassMasta - http://www.tabs-database.com



Get this song at amazon.com      Ebay     Ringtones Ringtones  


Learn to play: Songwriting, Piano, Harmonica, Guitar

Related Ac Dc Bass Tabs

Tnt bass
Thunderstuck bass
Jailbreak bass
Baby Please Dont Go bass
You Shook Me All Night Long (100% Perfect) bass
Hail Caesar bass
C O D bass
Thunder Struck bass
Back In Black (easy) bass
Jailbreak (revised) bass
Snowballed bass
Shake A Leg bass
Highway To Helll bass
Back In Black Bass Tab bass
Bedlam In Belgium bass
Back In Black (perfect) bass
Rock N Roll Singer bass
Girls Got Rhythm bass
Fly On The Wall bass
Hells Bells (righty Right Right) bass


Guitar Tabs









All tabs are property and copyright of their owners. All tabs provided for educational purposes only. Privacy Policy, DMCA