Ac Dc

If You Want Blood You've Got It Tabs



More from Ac Dc

Ac Dc Tabs
Ac Dc Chords
Ac Dc Bass
Ac Dc Lyrics



IF YOU WANT BLOOD (YOU'VE GOT IT) (SOLO)
(Transcribed by Rudy Guzman, guzman_84@hotmail.com)

solo 1
slowly
e:|----------------------------------------------5---------------------|
B:|----------------------------------------7b~~----5--9b--10-8---------|
G:|---------5-7-5---5--5-5---5-5-5---5-5-5---------------------9-7h8p7-|
D:|---------------7--------7-------7-----------------------------------|
A:|--------------------------------------------------------------------|
E:|-3b-----------------------------------------------------------------|

e:------------10~~-7/10~~----10-10----10-10-----10-10--10~~~----5-8-5-8-5-|
B:-------------------------12-------12-------12b---------------8-----------|
G:--7-5b-------------------------------------------------------------------|
D:9------7-7---------------------------------------------------------------|
A:-------------------------------------------------------------------------|
E:-------------------------------------------------------------------------|

e:------------------------------------------------------------------|
B:8-5-8-5---------------------------5-5---5-5---5-5-----------------|
G:--------7-5-7-5---5-7-7--5--------5-5---5-5---5-5-etc...---5-----|
D:----------------7----------7~~--7-----7-----7-------------------5b|
A:------------------------------------------------------------------|
E:------------------------------------------------------------------|

e:----------17b~~~-----------------------------------------|
B:-----0/--------------------------------------------------|
G:/17------------------------------------------------------|
D:---------------------------------------------------------|
A:---------------------------------------------------------|
E:---------------------------------------------------------|

solo 2
e:----------------------------------------------------------------17-------|
B:-17b-------------------------------17------------------------------17----|
G:-----17--14~~--------14-16-16b-16b-----16b-14h16p14-----14--16b-------16b|
D:---------------14-16---------------------------------16------------------|
A:-------------------------------------------------------------------------|
E:-------------------------------------------------------------------------|

e:17------------------------------------------------------17~~~-14-17-17-|
B:---17----------------17----17------------17----17----17----------------|
G:------16b-etc...--16----16----16-14~~-16----16----16-------------------|
D:-----------------------------------------------------------------------|
A:-----------------------------------------------------------------------|
E:-----------------------------------------------------------------------|

e:14-17-17~~~--20b--20b-20b-20b-20b~~~~--17-20-19-17h19p17--17b---|
B:----------------------------------------------------------20b---|
G:----------------------------------------------------------------|
D:----------------------------------------------------------------|
A:----------------------------------------------------------------|
E:----------------------------------------------------------------|

try repeating the last part of the second solo


Get this song at amazon.com      Ebay     Ringtones Ringtones  


Learn to play: Songwriting, Piano, Harmonica, Guitar

Related Ac Dc Tabs

Back In Black Intro tabs
Back In Black2 tabs
Walk All Over U tabs
Hells Bells tabs
Kissin Dynamite tabs
If You Dare tabs
Sattelite Blues tabs
Gimie A Bullet tabs
Shake Your Foundations tabs
Its A Long Way tabs
Stand Up tabs
C O D tabs
Live Wire tabs
Put The Finger On You tabs
Carry Me Home tabs
Bonny tabs
School Days tabs
Cod tabs
Down Payment Blues tabs
Overdose tabs


Guitar Tabs









All tabs are property and copyright of their owners. All tabs provided for educational purposes only. Privacy Policy, DMCA