Ac Dc

If You Want A Blood Bass Tabs



More from Ac Dc

Ac Dc Tabs
Ac Dc Chords
Ac Dc Bass
Ac Dc Lyrics



Intro
play once, wait 3 measures
and play 4 times
G:--------------------------------
D:--------------------------------
A:--------------------------------
E:5-------------------------------


Verse
G:--------------------------------
D:--------------------------------
A:---------------/5-5-5-5-5-5-5-5-
E:5-5-5-5-5-5-5-5----------------


Chorus
G:-------------------------------- (7x)
D:--------------------------------
A:----------------5---------------
E:5-----------3-------------------

G:--------------------------------(1x)
D:--------------------------------
A:5-5-5-5-5-5-5-5-5-5-5-5-5-5-5-5-
E:--------------------------------
Bridge
G:--------------------------------8x
D:--------------------------------
A:--------------------------------
E:5-------------------------------

G:--------------------------------
D:--------------------------------
A:----------------5-(let ring)----
E:5-(stacatto)3-------------------

G:--------------------------------4x
D:--------------------------------
A:--------------------------------
E:5-------------------------------

Intro
Verse 8x
Chorus
Verse 10x
Chorus
Solo play verse 8x
Bridge
Repeat verse and fade out

Taken from The BassMasta -- http://www.tabs-database.com



Get this song at amazon.com      Ebay     Ringtones Ringtones  


Learn to play: Songwriting, Piano, Harmonica, Guitar

Related Ac Dc Bass Tabs

Shoot To Thrill bass
Highway To Hell (perfect) bass
Fly On The Wall bass
Its A Long Way To The Top bass
Jail Break bass
Lets Get It Up bass
Its Along Way To The Top bass
Rock N' Roll Ant Noise Pollution bass
Get It Hot bass
Hells Bells Modified Bass Part bass
Hard As A Rock bass
Flick Of The Switch bass
Jailbreak (revised) bass
Whole Lotta Rosie (correction) bass
Damned bass
Rock And Roll Aint' Noise Polution bass
Squealer bass
Big Guns bass
Problem Child bass
Hells Bells Adapted For Bass bass


Guitar Tabs









All tabs are property and copyright of their owners. All tabs provided for educational purposes only. Privacy Policy, DMCA