Ac Dc

High Way To Hell Bass Tabs



More from Ac Dc

Ac Dc Tabs
Ac Dc Chords
Ac Dc Bass
Ac Dc Lyrics




intro/verse
G-----------------------------------------
D-----------------------------------------
A-----------------------------------------
E-5-5-5-----2-2-3---2-2-3--2-2-3---2--5-5-

Pre-Chorus

G-----------------------------
D-----------------------------
A-----------------------------
E-0---0-0-0-0-0-0-0-0-0-0-0-0-

Chorus
("im on a high way to hell..")
G-----------------
D-------------5---
A-0-0-0-0-0-0---5-
E-----------------

G---------------
D---------------
A-0-0-0-0-0-0-5-
E--------------- play on last time

Bridge

G-------------------------
D-------------------------
A-5--5--5---5--5--5--5--5-
E-------------------------
ON SOLO PLAY CHOURS

END

G-----------------
D-----------------
A-0-0-0-0-0-0-0-0-
E-----------------
ENJOY



Get this song at amazon.com      Ebay     Ringtones Ringtones  


Learn to play: Songwriting, Piano, Harmonica, Guitar

Related Ac Dc Bass Tabs

If You Want Blood (you've Got It) bass
Sin City bass
Back In Black (100%) Bass Tab bass
Squealer bass
Thunder Struck bass
Rock & Roll Ain't Noise Pollution bass
Giving The Dog A Bone bass
Big Gun bass
Highway To Hell bass
Breaking The Rules bass
Big Guns bass
For Those About To Rock bass
Boogie Man bass
What Do You Do For Money Honey bass
Let There Be Rock bass
Kicked In The Teeth bass
Rock N Roll Singer bass
Highway To Hell (perfect) bass
Back In Black bass
Razors Edge bass


Guitar Tabs









All tabs are property and copyright of their owners. All tabs provided for educational purposes only. Privacy Policy, DMCA