Ac Dc

High Voltage Bass Tabs



More from Ac Dc

Ac Dc Tabs
Ac Dc Chords
Ac Dc Bass
Ac Dc Lyrics




TABBED BY: Aaron Mauro (IDontCare1209@yahoo.com) AKA: Tradition

Artist: AC/DC
Song: High Voltage
Album: High Voltage
Year: 1974
Composed by: Angus Young, Bon Scott, and Malcolm Young
Track Length: 4:14

~ - Let Ring
/ - Slide up
- Slide down
S Slap
P Pop
X choke string


WARNING: This tab is NOT, I repeat, NOT, 100% correct. It is just something
I've done within an hour or two by untrained ear. I do not mind what you rate
it, or if it gets that far. This is just a tab so you can get the feeling of the
song, or at least this tab sounds close to what the song is. I've looked around
and it seems that there aren't accurate tabs for this song. Don't kill me
over one bad tab, Okay?


Intro

G |--------------------------------------------------------|
D |--------------------------------------------------------|
A |-777~----5-4-0-0----------------------------------------| Repeat Four Times
E |--------------------------------------------------------|

G |--------------------------------------------------------|
D |--------------------------------------------------------|
A |-------------------------------------5-6-77-------------|
E |---0--3--5-----0--3--5----0-3-5-------------------------|

Bridge

G |--------------------------------------------------------|
D |--------------------------------------------------------|
A |--------77--------77-------55----------------5-7--------| Repeat Three Times
E |---7-5-------7-5------7-5--------7-5-0-3-5--------------|

G |--------------------------------------------------------|
D |--------------------------------------------------------|
A |--------77-------77--------55---------------------------|
E |---7-5------7-5-------7-5------75-4-3-2-1---------------|

Chorus

G|---------------------------------------------------------|
D|---------------------------------------------------------|
A|--0-0-0-0-0-3-3-3-5-5-5--0-3-4---------------------------| Repeat Two times
E|--------------------------------------4-3-2--------------|


G|---------------------------------------------------------|
D|---------------------------------------------------------|
A|--3-3-3-3-3-5-5-5----------------------------------------| Repeat Two Times
E|-----------------------1-1-2-2-3-3-----------------------|


G|---------------------------------------------------------|
D|---------------------------------------------------------|
A|--3-3-3-3-3-------5-5-5----------------------------------|
E|------------3-3-3----------------------------------------|

Solo

G |--------------------------------------------------------|
D |--------------------------------------------------------|
A |-777~----5-4-0-0----------------------------------------|
E |--------------------------------------------------------|

G |--------------------------------------------------------|
D |--------------------------------------------------------|
A |-----------77777----------------------------------------| Repeat Three Times
E |-----7-5------------------------------------------------|

G |--------------------------------------------------------|
D |--------------------------------------------------------|
A |-----------77777---00223344-----------------------------|
E |-----7-5------------------------------------------------|



Get this song at amazon.com      Ebay     Ringtones Ringtones  


Learn to play: Songwriting, Piano, Harmonica, Guitar

Related Ac Dc Bass Tabs

Hail Cesar bass
Whole Lotta Rosie (correction) bass
C O D bass
Help bass
Back In Black bass
Problem Child bass
If You Want Blood (you've Got It) bass
Lets Make It bass
Givin The Dog A Bone bass
Thunderstruck bass
High Voltage bass
Shake A Leg bass
This House Is On Fire bass
For Those About To Rock bass
You Shook Me All Night Long Bass Tab bass
Back In Black (joes Way)(right Way) bass
Ballbreaker bass
Moneytalks bass
School Days bass
Back In Black (perfect) bass


Guitar Tabs









All tabs are property and copyright of their owners. All tabs provided for educational purposes only. Privacy Policy, DMCA