Ac Dc

Hells Bells Tabs



More from Ac Dc

Ac Dc Tabs
Ac Dc Chords
Ac Dc Bass
Ac Dc Lyrics

Intro:
E|-------------------------|------------------------|------------------------|
B|-------------------------|------------------------|------------------------|
G|-----9-----7----------5--|----------7-------------|----9-----7----------5--|
D|--------7-------7--------|----5----------7--------|-------7-------7--------|
A|--0----------------0-----|-------0----------0--0--|------------------0-----|
E|-------------------------|------------------------|------------------------|


|-------------------------|
|-------------------------|
|----------7----------2---|
|----5----------5--5--2---|
|-------0-------3--2--0---|
|-------------------------|


Last part of intro:
|------------------------|------------------------|
|------------------------|------------------------|
|----9-----7----------5--|----------7-------------|
|-------7-------7--------|----5----------7--------|
|------------------0-----|-------0----------0--0--|
|------------------------|------------------------|

|---------------------3--|----3--2----------------|
|---------------------3--|----3--3----------------|
|----9-----7----------0--|----0--2----------2-----|
|-------7-------7-----0--|----0--0----5--5--2-----|
|------------------0-(2)-|---(2)-0----3--2--0-----|
|---------------------3--|----3-------------------|


Verse:
|------------------------|------------------------|
|------------------------|------------------------|
|----9--7--9----7--5--7--|---------------------2--|
|----7--7--7----5--5--7--|-------------5---5---2--|
|------------------------|----0--0--0--3---2---0--|
|------------------------|------------------------|


Chorus:

2x
|--2--2--2--2--2--2--2--2--2----3------|
|--3--3--3--3--3--3--3--3--3----3------|
|--2--2--0--2--2--0--2--2--2----0---2--|
|--0--0--0--0--0--0--0--0--0---(2)--2--|
|--0--0--0--0--0--0--0--0--0----3---0--|
|--------------------------------------|

then
|-------------------------------3------|
|-------------------------------3------|
|--9--9-----9--9-----9--9--9----0---2--|
|--9--9--7--9--9--7--9--9--9----0---2--|
|--7--7--7--7--7--7--7--7--7---(2)--0--|
|-------------------------------3------|

|-------------------------------3---3--|
|-------------------------------3---3--|
|--9--9-----9--9-----9--9--9----0---0--|
|--9--9--7--9--9--7--9--9--9----0---0--|
|--7--7--7--7--7--7--7--7--7---(2)-(2)-|
|-------------------------------3---3--|
Get this song at amazon.com      Ebay     Ringtones Ringtones  


Learn to play: Songwriting, Piano, Harmonica, Guitar

Related Ac Dc Tabs

All Screwed Up tabs
Back In Black (whole) tabs
Shot Of Love tabs
Put The Finger On You tabs
Money Talks tabs
Dog Eat Dog tabs
Moneytalks 100% Accurate (updated) tabs
D T tabs
Little Lover tabs
Hell's Bells tabs
Aint No Fun Waitin Round To Be A Millionaire tabs
Satellite Blues Bass tabs
The Razors Edge tabs
Flick Of The Switch 100% Accurate tabs
Cyberspace tabs
Breaking The Rules tabs
C O D tabs
Love Hungry Man (intro) tabs
Ball Breaker tabs
Givin The Dog A Bone tabs


Guitar Tabs









All tabs are property and copyright of their owners. All tabs provided for educational purposes only. Privacy Policy, DMCA