Ac Dc

Heatseeker Live Tabs



More from Ac Dc

Ac Dc Tabs
Ac Dc Chords
Ac Dc Bass
Ac Dc Lyrics

I tried to submit this when I was a non-member and they didn't take it. This lines up
with the version on the live cd exactly.
Malcolm repeats this 3 times then both guitars do this.
D5 A5
e|-----------| |-----|
b|-3-3-3-3-3-| |-----|
g|-2-2-4-2-4.| |-2---|
d|-0-0-0-0-0.| |-2---|
a|-----------| |-0---|
E|-----------| |-----|
They play around on the A5 cord a few times then they do this.
Fig.1.
G5 D/F# D G5 D A5
|--------2-x-x--0-2---|
|-3--3---3-x-x--3-3-2-|
|-0--2---2-x-x--0-2-2-|
|-0--0---0------0-0-0-|
|-0--0----------------|
|-3--2----------------|
Fig.2.
Malcolm Angus
A5 A5
|---------| |------------|
|---------| |------------|
|-2-x0-2-.| |-----------.|
|-2-x0-2-.| |-14--x12-14-.|
|-0-x0-0--| |-12--x12-12--|
|---------| |------------|
Fig.1. once more.
The choruses are Fig. 2.
The other tabs have a somewhat right solo in them, I won't bother to tab it.
There's this one section after the second chorus that goes like this.
|------------------------------|
|------------------------------|
|-----------------------------.|
|-----------------------------.|
|-0-4-0-0-6-0-0-4-0-0-6-0-4-0--|
|--------------- --------------|
Here's a cool thing at the end of the solo.
~~~~~~~~~~~~~~~
|--------------/17-|
|------------------|
|------------------|
|-/12-/12-/12------|
|------------------|
|------------------|
The rest of this song is just these parts in a different order.
Thanks for reading this,
Sheldon and Eric W.



Get this song at amazon.com      Ebay     Ringtones Ringtones  


Learn to play: Songwriting, Piano, Harmonica, Guitar

Related Ac Dc Tabs

Ride On tabs
Cod Bass tabs
Overdose tabs
Let Me Put My Love Into You tabs
Let s get it up tabs
Nervous Shakedown tabs
Back In Black Solo3 tabs
Thats The Way I Wanna Rock N Rock tabs
Tnt Live tabs
Back In Black Solo tabs
Landslide tabs
Cyberspace tabs
Over Dose tabs
Twos Up tabs
Kicked In The Teeth (the Easy Way) tabs
Can I Sit Next To You tabs
Razor's Edge, The tabs
Two tabs
Satellite Blues tabs
Fling Thing tabs


Guitar Tabs









All tabs are property and copyright of their owners. All tabs provided for educational purposes only. Privacy Policy, DMCA