Ac Dc

Hail Caesar Tabs



More from Ac Dc

Ac Dc Tabs
Ac Dc Chords
Ac Dc Bass
Ac Dc Lyrics

legend:

b= bend

r= release bend

/= slide up

\= slide down

p= pull off

~= vibrato

pm= palm mute

p= pinch harmonic

x= muted string



x2

e|-0-----------|-----------------/12\----------------------12-----------|

B|---3---------|----------------------15b17--15b17-15b17~~----15p12-----|

G|-----2br-0---|----------------------------------------------------14--|

D|-----------2-|--0-2p0-------------------------------------------------|

A|-------------|--------1-0---------------------------------------------|

E|-------------|------------3b-0----------------------------------------|



e|----------------------------------------------------------------------|

B|-----12--------------------------------------14b--------14---14-------|

G|-14b----12~----9~--7~----12--14b--14b-12~----14brp12----14b--14b-rp12-|

D|-----------------------------------------------------14---------------|

A|----------------------------------------------------------------------|

E|----------------------------------------------------------------------|



e|----------------------------------------------------------------------|

B|-------------------------------------------15-------------------------|

G|-pm--p-----------pm------12----14----12-14b--rp12----14----12~--------|

D|-14--5-p----12b--14-14~-----14----14--------------14----14------------|

A|-------7~-------------------------------------------------------------|

E|----------------------------------------------------------------------|



e|-----12----------------------------------------------------------------|

B|-15b----15p13-----13b--------------------------------------------------|

D|--------------14------14~-14~-14~14~14~\----7-7-7b~-7b-5b----5b-7b-5---|\

G|----------------------------------------------------------7~-----------|

A|-----------------------------------------------------------------------|

E|-----------------------------------------------------------------------|



e|----------------------------------------------------------------------|

B|----------------------------------------------------------------------|

G|-5b--5b5b5b5b5b5----5--------------------------------5-5~\------12-12-|

D|------------------7----5--7~-7~\----5b-5b5b5b-7~--/7------------------|

A|----------------------------------------------------------------------|

E|----------------------------------------------------------------------|



e|----------------------------------------------------------------------|

B|-----------------------------------------------15---------------------|

G|----14----12b------------12--14b----12b-12b-14b--14b\--12b-----12-14b-|

D|-14----14------14~---/14---------14------------------------14---------|

A|----------------------------------------------------------------------|

E|----------------------------------------------------------------------|



e|----12--------------12----------12-12------12-------------------------|

B|-12----15p12-----12---15p12-----------15b-------12~-------------------|

G|-------------14b------------14b---------------------16-15-14b---------|

D|--------------------------------------------------------------14~-----|

A|----------------------------------------------------------------------|

E|----------------------------------------------------------------------|



e|-------------------12------------------------------------0------------|

B|-------------------x--15------------------3----------------3----------|

G|-12b--14-14br-12~--x--x--16-15-14b--------2------0-----------2br-0----|

D|-----------------------------------14~----0------0---2-------------2~-|

A|--------------------------------------------1-0--x---2----------------|

E|-------------------------------------------------3---0----------------|



e|-------------------------------------------------------|

B|-14-14br-14br-14br-------------------------------------|

G|-14-14br-14br-14br-12----------------------------------|

D|----------------------14-------------------------------|

A|-------------------------------------------------------|

E|-------------------------------------------------------|Added by tabs-database.com and our distinguished partners
Get this song at amazon.com      Ebay     Ringtones Ringtones  


Learn to play: Songwriting, Piano, Harmonica, Guitar

Related Ac Dc Tabs

Thunderstruct tabs
C O D tabs
Are You Ready (100% Correct) tabs
Over Dose tabs
Rock Your Heart Out tabs
Dog Eat Dog tabs
Love Bomb tabs
Overdose tabs
Walk All Over You Intro tabs
Shoot To Thrill tabs
Hells Bells (full) tabs
Ball Breaker tabs
Got You By The Balls tabs
Safe In New York City tabs
Ain't No Fun Waiting Round To Be Millionare tabs
Rockin In The Parlour tabs
Fly On The Wall tabs
Tnt Live tabs
The Jack Live tabs
Boom Boom tabs


Guitar Tabs









All tabs are property and copyright of their owners. All tabs provided for educational purposes only. Privacy Policy, DMCA