Ac Dc

Goodbye And Good Riddance To Bad Luck Bass Tabs



More from Ac Dc

Ac Dc Tabs
Ac Dc Chords
Ac Dc Bass
Ac Dc Lyrics




Intro x4
G -----------|----|
D .---------.|----|
A .-------5~.|----|
E -5~--3~----|-0~-|

Verse
G ----------------------------------------------------------------|
D ----------------------------------------------------------------|
A -----------------5--7-----------------------------5--7----------|
E -5-5-5-5-5-5-5-5------5-5-5-5-5-5-5-5-5-5-5-5-5-5------5-5-5-5-5|
x3
G -------|------------------------|
D -------|.-----------5----------.|
A -------|.--7--7-7-7------------.|
E -5-5-5-|----------------5--5-5-5|

Chorus
G ----------------|
D ----------------|
A -5-5~--5~--5-7~-|
E ----------------|

After Chorus
G ----------------|
D ----------------|
A --------5~------|
E -5~--3~---------|

Verse
Chorus

Pre Solo x5
G ------|---------|
D ------|.-------.|
A ---5~-|.-------.|
E -5----|-0--3-3--|

Solo x2
G ----------------------------------------------------------------|
D .--------------------------------------------------------------.|
A .----------------5-5-5-----------5-5-5-7-7-7-7-7---------------.|
E -5-5-5-5-5-5-5-5-------5-5-5-5-5-----------------3-3-3-5-5-5-5-5|

G --------------------------------|
D --------------------------------|
A -5-5-5-7-7-7-7-7----------------|
E -----------------3-3-3-5-5-5-5-5|

Chorus
Intro

Outro
G ----------------------------------------------------------------|
D ----------------------------------------------------------------|
A -------------------------------------5-5-5-5--------------------|
E -5-5-5-5-5-5-5-5-5-5-5-5-5-5-3-3-3-3---------5-5-5-5-5-5-5-5-5-5|

G --------------------------------|
D --------------------------------|
A -------------------------5~-----|
E -5-5-5-5-5--3-5--3-5--3~-----5~-|



Get this song at amazon.com      Ebay     Ringtones Ringtones  


Learn to play: Songwriting, Piano, Harmonica, Guitar

Related Ac Dc Bass Tabs

Let There Be Rock (easy) bass
Highway To Helll bass
Damned bass
Rock N Roll Aint Noise Pollution bass
Flick Of The Switch bass
Dog Eat Dog bass
Live Wire bass
Touch Too Much bass
For Those Abaut To Rock bass
Walk All Over You bass
Jailbreak (revised) bass
Go Down bass
Dirty Deeds Done Dirt Cheap bass
What Do You Do For Money Honey bass
Razors Edge bass
Have A Drink On Me bass
For Those About To Rock(we Salute You) bass
Sin City 99% Correct bass
Can't Stop Rock 'n' Roll bass
Thunderstuck bass


Guitar Tabs









All tabs are property and copyright of their owners. All tabs provided for educational purposes only. Privacy Policy, DMCA