Ac Dc

Go Down Tabs



More from Ac Dc

Ac Dc Tabs
Ac Dc Chords
Ac Dc Bass
Ac Dc Lyrics

GO DOWN - AC/DC


Let There Be Rock, 1976		         Words & Music by Ron Scott, Angus &
tabbed by Jason Bineider	         Malcolm (the riffmaker) Young.


		Intro: (Angus and Malcolm play the same figures)
 						
 (spoken)
  Ah 1 2 3
		 (feed back)         (hold chord)          
		 ------------>	    ------------>
	e|------------------------------------------------------------------
	b|------------------------------------------------------------------
	g|-2--5--2------------2--5--2------------2--5--2------------2--5--2-
	D|-2--5--2------------2--5--2------------2--5--2------------2--5--2-
	A|-0--3--0------------0--3--0------------0--3--0------------0--3--0-
	E|------------------------------------------------------------------

	e|----------------------------------------------------------------|
	b|----------------------------------------------------------------|
	g|-2--5--2-------2--5--2------2--5--2------2--5--2-------2--5--2--|
	D|-2--5--2-------2--5--2------2--5--2------2--5--2-------2--5--2--|
	A|-0--3--0-------0--3--0------0--3--0------0--3--0-------0--3--0--|
	E|----------------------------------------------------------------|

	
	Verse:

   
		    V		
	e|---------------------------------------------------------- 	
	b|------------0------------------0------------------0-------
	g|-----2--2--0--2---------2--2--0--2------2--2--2--0--2----
	D|--2--2--2--0--2------2--2--2--0--2------2--2--2--0--2---- 
	A|---0--0--0--0--0------0--0--0--0--0------0--0--0--0--0----
	E|-----------------------------------------------------------

						Rhythm Figure 2
		     V		
	e|----------------------------------------------------- 	
	b|-----------0----------------0----------------0-------
	g|-----2--2--0--2-------2--2--0--2----2--2--2--0--2----
	D|--2--2--2--0--2----2--2--2--0--2----2--2--2--0--2---- 
	A|--0--0--0--0--0----0--0--0--0--0----0--0--0--0--0----
	E|-----------------------------------------------------
		      
		     V			  Ruby, Ruby....
	e|-------------------------------------------------------------	
	b|-----------0----------------0-----------------------0--------
	g|-----2--2--0--2-------2--2--0--2-----2----2----2----0----2---
	D|--2--2--2--0--2----2--2--2--0--2-----2----2----2----0----2--- 
	A|--0--0--0--0--0----0--0--0--0--0-----0----0----0----0----0---
	E|-------------------------------------------------------------
		keep playing that riff untill

 	   You got the lips....
	e|-----------------------------------------------------------------
	b|-----------------------------------------------------------------
	g|----------9----9----9----7----9-------9----9----9----7----9------
	D|----------9----9----9----7----7-------9----9----9----7----9------
	A|----------7----7----7----5----7-------7----7----7----5----7------
	E|-----------------------------------------------------------------

	
	e|--------------------------------------------------------
	b|--------------------------------------------------------
	g|--9----9----9----7----9-------9----9----9----7----9-----
	D|--9----9----9----7----9-------9----9----9----7----9-----
	A|--7----7----7----5----7-------7----7----7----5----7-----
	E|--------------------------------------------------------

	e|-------------------------------------------------------
	b|-------------------------------------------------------
	g|--5----5----5----7----5---------5----5----5----7--5----
	D|--5----5----5----7----5---------5----5----5----7--5----
	A|--3----3----3----5----3---------3----3----3----5--3----
	E|-------------------------------------------------------

	e|---------------------------------------------------------|
	b|---------------------------------------------------------|
	g|--5----5----5----7----5--------5----5----5-----7----5----|
	D|--5----5----5----7----5--------5----5----5-----7----5----|
	A|--3----3----3----5----3--------3----3----3-----5----3----|
	E|---------------------------------------------------------|

	Chours:

	Play rhythm figure 1
	
	Verse 2:
	
	Play rhythm figure 2
	
	
	Solo:

	Guitar 2 (angus) ?

					Rhythm Figure 3
	Guitar 1 (Malcolm)
	*Its bascily this riff*

	e|-----------------------------------|
	b|-----------------------------------|
	g|--2----(2)----2----2----0----2-----|
	D|--2-----2-----2----2----0----2-----|
	A|--0-----3-----0----0----0----0-----|
	E|-----------------------------------|


  
	Interlude

This is my favorite part of the song.

(ad-lib vocals)

  	   eww baby ruby it on
	e|----------------------------------------------------|
	b|---------------------------r---------------------|
	g|----------------------7--7--7--7---5-----7-p-5-(5)--|
	D|------------------------------------------------7---|
	A|----------------------------------------------------|
	E|----------------------------------------------------|

	   Ohhh its still sweet since you been gone
						       ~~~~~~~~~
	e|-------------------------------------------------------------|
	b|--------------------------------------------*--*--*----------|
	g|------------------------------------------------r-----------|
	D|-------------------------------------------(7)-7--5----5-7-7-|
	A|-------------------------------------------------------------|
	E|-------------------------------------------------------------|
							* Wide Vibratto
	  and no one else gotta touch like you
	e|---------------------------------------------full---------------|
	b|--------------------------------------------7---------------|
	g|---------------------------------------7--7--------7--7-p-5-----|
	D|--------------------------------------------------------------7-|
	A|----------------------------------------------------------------|
	E|----------------------------------------------------------------|
 				     ewww feels good   
          ~~~~~~~~~~~~~~~~~~~~~~~~~
	e|--------------------------|----------------------full---|
	b|-*--*--*---*---*--*--*--*-|----------------10--10--10-----|
	g|-------5------------5-----|-------------------------------|
	D|-7--7-----7----7--7----7--|-------------------------------|
	A|--------------------------|-------------------------------|
	E|--------------------------|-------------------------------|
	   * wide vibratto
  		
           ahhh ahhhh ahhhh  
    	e|---------------------full-full-full--
	b|---------------------10---10---10----
	g|-------------------------------------
	D|-------------------------------------ect...
	A|-------------------------------------
	E|-------------------------------------


  
	These are the chourds Malcolm plays over Angus's soloing


	e|---------------------|
	b|---------------------|
	g|---------------------|
	D|-2--0--2--0--2--0----|
	A|-2--0--2--0--2--0----|
	E|---------------------|
	ECT....

	Play rhythm figure 3, 
	play rhythm Figure 1,
	FADE OUT............


y
Get this song at amazon.com      Ebay     Ringtones Ringtones  


Learn to play: Songwriting, Piano, Harmonica, Guitar

Related Ac Dc Tabs

Rock And Roll Damnation tabs
Solo (tnt) tabs
Rocker tabs
Heatseeker Live tabs
Baby Please Dont Go2 tabs
About To Rock tabs
High Voltage tabs
Back In Business tabs
Hold Me Back tabs
Back In Black6 tabs
House Of Jazz tabs
Dirty Deeds Done Dirt Cheap G tabs
Love Hungry Man (intro) tabs
The Jack Live tabs
Are You Ready Intro tabs
Chase The Ace tabs
High Voltage Intro tabs
Two tabs
Big Gun tabs
Thunderstruck tabs


Guitar Tabs









All tabs are property and copyright of their owners. All tabs provided for educational purposes only. Privacy Policy, DMCA