Ac Dc

For Those About To Rock(we Salute You) Tabs



More from Ac Dc

Ac Dc Tabs
Ac Dc Chords
Ac Dc Bass
Ac Dc Lyrics




Guitar 1 - Is played with echo or delay.

E--11--11--11----11--11--11--|--10--10----14-14--|--12----12--12--|
B--12--12--12----12--12--12--|--12--12----12-12--|--12----12--12--|
G--11--11--11----11--11--11--|--11--11----11-11--|--11----11--11--| x6
D----------------------------|-------------------|----------------|
A----------------------------|-------------------|----------------|
E----------------------------|-------------------|----------------|

E--12-12-12-12--12-12-12-12--|----------12-12-12-12--12-12-12-12--|
B--12-12-12-12--12-12-12-12--|--Oohh!!--12-12-12-12--12-12-12-12--|
G--11-11-11-11--11-11-11-11--|----------11-11-11-11--11-11-11-11--|
D----------------------------|------------------------------------|
A----------------------------|------------------------------------|
E----------------------------|------------------------------------|

Guitar 2 - Comes in, when Gtr. 1 has played his part, 2 times.

E---------|-------------------------|
B---------|-------------------------|
G--4------|-------------------------|
D--4------|--------5-------------2--|
A--2------|-----5---------0------2--|
E---------|--3------------2------0--|

E---------|--3----------------------|
B---------|--3------3---------------|
G--4------|--0------2---------------|
D--4------|--0------0------2--------|
A--2------|--2-------------2--------|
E---------|--3-------------0--------|

E---------|-------------------------|
B---------|-------------------------|
G--4---4--|-------------------------|
D--4---4--|--------5--------0--2----|
A--2---0--|-----5--------0-----2----|
E---------|--3--------2--------0----|

E---------|-------------------------|
B---------|-------------------------|
G--4---4--|-------------------------|
D--4---4--|--5----4----2------------|
A--2---0--|--5----4----2------------|
E---------|--3----2----0------------|

Guitar 1 & 2

E---------|--3----------|---------------|
B---------|--3--3-------|---------------|
G--4---4--|--0--2-------|---------------|
D--4---4--|--0--0--2----|--2-0-2-2-2~~--|
A--2---0--|--2-----2----|---------------|
E---------|--3-----0----|---------------|

E---------|--3----------|--------7-7-7--|--7---|
B---------|--3--3-------|--------7-7-7--|--7---|
G--4---4--|--0--2-------|---------------|-------|
D--4---4--|--0--0--2----|--2-/-9--------|-------|
A--2---0--|--2-----2----|---------------|-------|
E---------|--3-----0----|---------------|-------|

E---------|--3----------|---------------|
B---------|--3--3-------|---------------|
G--4---4--|--0--2-------|---------------|
D--4---4--|--0--0--2----|--2-0-2-2-2~~--|
A--2---0--|--2-----2----|---------------|
E---------|--3-----0----|---------------|

E---------|--3--------------------------|
B---------|--3--3-----------------------|
G--4---4--|--0--2-----------------------|
D--4---4--|--0--0--2--------------------|
A--2---0--|--2-----2--------------------|
E---------|--3-----0--------------------|

Verse:

E---------|-------------|----------|--3-------|
B---------|--3-3-3------|----------|--3-------|
G--4-/----|--2-2-2-2----|--2-------|--0-------| x4
D--4-/----|--0-0-0-2----|--2--2----|--0--2----|
A--2-/----|--------0----|--0--2----|--2--2----|
E---------|-------------|-----0----|--3--0----|

Chorus:

E---------|--3----------|---------------|
B---------|--3--3-------|---------------|
G--4---4--|--0--2-------|---------------|
D--4---4--|--0--0--2----|--2-0-2-2-2~~--|
A--2---0--|--2-----2----|---------------|
E---------|--3-----0----|---------------|

E---------|--3--------------------------|
B---------|--3--3-----------------------|
G--4---4--|--0--2-----------------------|
D--4---4--|--0--0--2--------------------|
A--2---0--|--2-----2--------------------|
E---------|--3-----0--------------------|

Verse:

E---------|-------------|----------|--3-------|
B---------|--3-3-3------|----------|--3-------|
G--4-/----|--2-2-2-2----|--2-------|--0-------| x2
D--4-/----|--0-0-0-2----|--2--2----|--0--2----|
A--2-/----|--------0----|--0--2----|--2--2----|
E---------|-------------|-----0----|--3--0----|

Chorus:

E---------|--3----------|---------------|
B---------|--3--3-------|---------------|
G--4---4--|--0--2-------|---------------|
D--4---4--|--0--0--2----|--2-0-2-2-2~~--|
A--2---0--|--2-----2----|---------------|
E---------|--3-----0----|---------------|

E---------|--3----------|--------7-7-7--|--7---|
B---------|--3--3-------|--------7-7-7--|--7---|
G--4---4--|--0--2-------|---------------|-------|
D--4---4--|--0--0--2----|--2-/-9--------|-------|
A--2---0--|--2-----2----|---------------|-------|
E---------|--3-----0----|---------------|-------|

E---------|--3----------|---------------|
B---------|--3--3-------|---------------|
G--4---4--|--0--2-------|---------------|
D--4---4--|--0--0--2----|--2-0-2-2-2~~--|
A--2---0--|--2-----2----|---------------|
E---------|--3-----0----|---------------|

E---------|--3--------------------------|
B---------|--3--3-----------------------|
G--4---4--|--0--2-----------------------|
D--4---4--|--0--0--2--------------------|
A--2---0--|--2-----2--------------------|
E---------|--3-----0--------------------|

Solo:

Guitar 1

Hold Bend . . . . . . . . .
E-----------------------------------------------------------------------|
B--10b--(12)-(12)-(12)-(12)-(12)-(12)----(12)-(12)-(12)-(12)-(12)-(12)--|
G-----------------------------------------------------------------------|
D-----------------------------------------------------------------------|
A-----------------------------------------------------------------------|
E-----------------------------------------------------------------------|

E--------------------|--5--3h5~~--|--5--------------------|-------------|
B--(12)-(12)-(12)---|------------|----8-5----------------|-------------|
G--------------------|------------|--------7p5-7p5--------|-------------|
D--------------------|------------|----------------7~~---|--5-7-7-7~~--|
A--------------------|------------|-----------------------|-------------|
E--------------------|------------|-----------------------|-------------|

E---------------|-------5-------5-------5-------5-------5-------5-------|
B---------------|-----5---8p5-----8p5-----8p5-----8p5-----8p5------7~~--|
G--8--7-5-7~~--|---7----------------------------------------------7~~--|
D---------------|-------------------------------------------------------|
A---------------|-------------------------------------------------------|
E---------------|-------------------------------------------------------|

E--10-----------|-------------------|--------12-----------|--10---------|
B-----13-10~~---|--12-13--10-12-13--|--12-13----12-13----|------13-10--|
G---------------|-------------------|---------------------|-------------|
D---------------|-------------------|---------------------|-------------|
A---------------|-------------------|---------------------|-------------|
E---------------|-------------------|---------------------|-------------|

E-----------10-----10-----10-----10-----10-----10~~--|------------------|
B--13----13-----13-----13-----13-----13-----13-------|---13--12--10---|
G----------------------------------------------------|------------------|
D----------------------------------------------------|------------------|
A----------------------------------------------------|------------------|
E----------------------------------------------------|------------------|

E--------------------|--8----------------------------|--15-17-15-17-17--|
B--7-10--10-10-10---|----10-8-----------------------|------------------|
G--------------------|---------9-7----7--------------|------------------|
D--------------------|-------------10------10-7-7-7--|------------------|
A--------------------|-------------------------------|------------------|
E--------------------|-------------------------------|------------------|

Guitar 2

E------------------|--3---------------|
B-------3-3-3------|--3----3----------|
G--2----2-2-2-2----|--0----2----------| x8
D--2----0-0-0-2----|--0----0----------|
A--0----------0----|--2---------------|
E------------------|--3---------------|

Verse:

E---------|-------------|----------|--3-------|
B---------|--3-3-3------|----------|--3-------|
G--4-/----|--2-2-2-2----|--2-------|--0-------| x2
D--4-/----|--0-0-0-2----|--2--2----|--0--2----|
A--2-/----|--------0----|--0--2----|--2--2----|
E---------|-------------|-----0----|--3--0----|

Bridge:

FOR THOSE ABOUT TO ROCK FIRE! WE SALUTE YOU!
E----------------------------------|----3--3------------|
B----------------------------------|----3--3--3---------|
G--------4-------------------------|----0--0--2--2------| x3
D--------4-------------------------|----0--0--0--2------|
A--------2-------------------------|----2--2-----0------|
E----------------------------------|----3--3------------|
FIRE! WWEEEEEE SAALUUUTE YOOUUUUU
E-----------------|--3-3-3--3-3-------------------------|
B-----------------|--3-3-3--3-3----3--------------------|
G--------4--------|--0-0-0--0-0----2--2-2-2--2-2-2------|
D--------4--------|--0-0-0--0-0----0--2-2-2--2-2-2------|
A--------2--------|--2-2-2--2-2-------0-0-0--0-0-0------|
E-----------------|--3-3-3--3-3-------------------------|

Chorus & Outro:

Guitar 1

E----------------------------------------------------|
B--12-12-12------------------------------------------|
G------------------------12----12----11----9----9----|
D----------------------------------------------------|
A----------------------------------------------------|
E----------------------------------------------------|

E------------------------|--------------------12--------|
B------------------------|--12----12----15--------------|
G------------------------|------------------------------|
D--9--9--9----9-9-9-----|------------------------------|
A------------------------|------------------------------|
E------------------------|------------------------------|

E----------------|--7--7--7~~----|----------------|--7--7--7~~----|
B--7--7--7~~----|----------------|--7--7--7~~----|----------------|
G----------------|----------------|----------------|----------------|
D----------------|----------------|----------------|----------------|
A----------------|----------------|----------------|----------------|
E----------------|----------------|----------------|----------------|

E--------------------|--7--7-7-7--7-7-7~~----|---------------------|
B--7--7--7-7-7~~----|------------------------|--7------------------|
G--------------------|------------------------|-----9--7------------|
D--------------------|------------------------|-----------9~~-------|
A--------------------|------------------------|---------------------|
E--------------------|------------------------|---------------------|

Here, the Outro begins...

E--7-7-7-7-7-7---7-7-7~~--|--7----------------------|---------------|
B-------------------------|----10p7---7-------------|----7sb--------|
G-------------------------|---------9---9p7---------|---------------|
D-------------------------|-----------------9~~----|---------------|
A-------------------------|-------------------------|---------------|
E-------------------------|-------------------------|---------------|

E--7--------------------------------|-------------------------------|
B----10p7---7-----------------------|---12-12-12--12-12-12--12-12---|
G---------9---9p7-9p7---------------|-------------------------------|
D---------------------9-----9---7---|-------------------------------|
A-----------------------7h9---9-----|-------------------------------|
E-----------------------------------|-------------------------------|

E------------|--12---12-12~~----12-------14----14----14--|--12------|
B--12-12----|---------------------12h15-----------------|------15--|
G------------|-------------------------------------------|----------|
D------------|-------------------------------------------|----------|
A------------|-------------------------------------------|----------|
E------------|-------------------------------------------|----------|

E--14--17p14-17p14-17p14--17p14-17p14-17p14~~--|--12----12----------|
B----------------------------------------------|-----15----15-12~~--|
G----------------------------------------------|--------------------|
D----------------------------------------------|--------------------|
A----------------------------------------------|--------------------|
E----------------------------------------------|--------------------|

E-----17-14-12-14-12--------|--14h17-14-14-14--14-14-14-14--p12-----|
B--12----------------15-12--|-----------------------------------15--|
G---------------------------|---------------------------------------|
D---------------------------|---------------------------------------|
A---------------------------|---------------------------------------|
E---------------------------|---------------------------------------|

E--19~~--19~~---------------|--19-17-----|--19~~--19~~--------------|
B---------------19~~--17~~--|--------19--|--------------19~~--17~~--|
G---------------------------|------------|--------------------------|
D---------------------------|------------|--------------------------|
A---------------------------|------------|--------------------------|
E---------------------------|------------|--------------------------|

E--22b-(24)--r22-19--|--19~~--19~~----------------------------------|
B--------------------|--------------15~~--14~~----------------------|
G--------------------|----------------------------------------------|
D--------------------|----------------------------------------------|
A--------------------|----------------------------------------------|
E--------------------|----------------------------------------------|

Guitar 2

E------------------|--3--3------------------|
B------------------|--3--3--3---------------|
G--4-4-4----4-4-4--|--0--0--2--2--2--2------| x9
D--4-4-4----4-4-4--|--0--0--0--2--2--2------|
A--2-2-2----2-2-2--|--2--2-----0--0--0------|
E------------------|--3--3------------------|

E------------------|--3--3------------------|
B------------------|--3--3--3---------------|
G--4-4-4----4-4-4--|*-0--0--2--2--2--2-----*|
D--4-4-4----4-4-4--|*-0--0--0--2--2--2-----*|
A--2-2-2----2-2-2--|--2--2-----0--0--0------|
E------------------|--3--3------------------|
HIT EACH OF THESE CHORDS, MANY TIMES...
E--3--3------------|---------------------------|------------|
B--3--3--3---------|--. . . . .----|------------|
G--0--0--2--2------|--4----2-------------------|----4--/----|
D--0--0--0--2------|--4----2----5----4----2----|----4--/----|
A--2--2-----0------|--2----0----5----4----2----|----2--/----|
E--3--3------------|------------3----2----0----|------------|



Get this song at amazon.com      Ebay     Ringtones Ringtones  


Learn to play: Songwriting, Piano, Harmonica, Guitar

Related Ac Dc Tabs

Sin City tabs
Touch To Much tabs
Flick Of The Switch Solo tabs
Soul Stripper tabs
What Next To The Moon tabs
Shake A Leg tabs
Snowballed tabs
Burning Alive tabs
Whats Next To The Moon Bass tabs
Rock And Roll Ain't Noise Pollution tabs
Ride On tabs
Hold Me Back tabs
Bacx In Blacx tabs
This Is My Song I Made Up (not Ac/dc) tabs
Dirty Deeds Done Dirt Cheap G tabs
Rock N Roll Damnation tabs
Spellbound tabs
Rock And Roll Ain't Noise Pollition Intro tabs
Gimme A Bullet tabs
Down Payment Blues tabs


Guitar Tabs









All tabs are property and copyright of their owners. All tabs provided for educational purposes only. Privacy Policy, DMCA