Ac Dc

Flick Of The Switch 100% Accurate Tabs



More from Ac Dc

Ac Dc Tabs
Ac Dc Chords
Ac Dc Bass
Ac Dc Lyrics



AC/DC - Flick of the Switch
Tabbed By: trevwh0re

Intro/Verses:

|------x----2-------------------|
|------1----3-------------------|
|--2---x----2-------------------|
|--2---2----0-------------------|
|--0---3--0-------------2-3-2---|
|---------------1-2-3-4---------|

Bridge:

|-----------------------------------|
|-------3-------3-------3-------3---|
|--2----2--2----2--2----2--2----2---|
|--2----0--2----0--2----0--2----0---|
|--0h3-----0h3-----0h3-----0h3------|
|-----------------------------------|

Chorus:
Repeat 4X and then the * again.
*
|------------------------------------------------|------x----|
|---------------------3--------------------------|-3-3--3--3-|
|-----------2-2-------2------------------2-2-----|-2-2--0--2-|
|-----------2-2-------0------------------2-2-----|-0-0--0--0-|
|--0h3-0h3--0-0--0h3------5-3-5fb-3r0-3--0-0-0h3-|------x----|
|------------------------------------------------|------3----|

Solo: Coming Soon!


Get this song at amazon.com      Ebay     Ringtones Ringtones  


Learn to play: Songwriting, Piano, Harmonica, Guitar

Related Ac Dc Tabs

Heatseeker Live tabs
Boom Boom tabs
Cover You In Oil tabs
Baby Please Dont Go tabs
Back In Black5 tabs
Cant Stand Still tabs
Momma Lova tabs
Fly On The Wall Album Tab tabs
Walk All Over You tabs
Back In Black Solo2 tabs
Ball Breaker tabs
Ruff Stuff tabs
Have A Drink tabs
Back In Black (main Riff) tabs
Hells Bells tabs
You Shook Me All Night Long tabs
If You Want Blood (you've Got It) tabs
Up To My Neck In You tabs
Tnt Correct Version tabs
Guns For Hire tabs


Guitar Tabs









All tabs are property and copyright of their owners. All tabs provided for educational purposes only. Privacy Policy, DMCA