Ac Dc

Easy Tnt Tabs



More from Ac Dc

Ac Dc Tabs
Ac Dc Chords
Ac Dc Bass
Ac Dc Lyrics




This part lasts for a while, then it switches to the second part.



-------|---------------------
-------|---------------------
-------|--------------------- Do this ALOT (Only do left side of bar 1 time.)
-------|---------------------
-----0-|----0---------0------
-0-3---|--0--3-0----3--------



-----------------------------
-----------------------------
-----------------------------
----------------------------- Repeat quite a bit
--0-------------------0------
---3-0--0000000000------3-0--



Get this song at amazon.com      Ebay     Ringtones Ringtones  


Learn to play: Songwriting, Piano, Harmonica, Guitar

Related Ac Dc Tabs

Inject The Venum tabs
Its A Long Way tabs
Chase The Ace tabs
Rock\'n Roll Singer tabs
Back In Black tabs
Cant Hold Me Back tabs
C O D tabs
Stiff Upper Lip Intro tabs
If You Want Blood tabs
Badlands tabs
Rock And Roll Aint' Noise Polution tabs
Back In Black- Only The Intro tabs
Fire Your Guns tabs
Rock And Roll Ain't Noise Pollution tabs
Burnin Alive tabs
Meanstreak tabs
This Means War tabs
Dirty Deeds tabs
Cod Bass tabs
Burnin' Alive tabs


Guitar Tabs









All tabs are property and copyright of their owners. All tabs provided for educational purposes only. Privacy Policy, DMCA