Ac Dc

Dirty Deeds Tabs



More from Ac Dc

Ac Dc Tabs
Ac Dc Chords
Ac Dc Bass
Ac Dc Lyrics




||----------------|-----------------|-----------------|
||o-------------0-|---------------2-|---------------3-|
||--1----(1)--x-0-|---1----(1)--x-2-|---1----(1)--x-2-|
||--2----(2)--x-0-|---2----(2)--x-2-|---2----(2)--x-0-|
||o-2----(2)--x-2-|---2----(2)--x-0-|---2----(2)--x-0-|
||--0----(0)--x-3-|---0----(0)--x---|---0----(0)--x---|
|
| Gtr II
| H +Q E E E Q. +Q E E E Q. +Q E E
||----------------|-----------------|-----------------|
||o---------------|-----------------|---------------3-|
||----------------|---------------2-|---------------2-|
||--2----(2)----5-|---2----(2)----2-|---2----(2)----0-|
||o-2----(2)----5-|---2----(2)----0-|---2----(2)------|
||--0----(0)----3-|---0----(0)------|---0----(0)------|

________________ ___________
|1.,2.,3. || 4.
E Q. +H E E +E. S +E Q.
|----------------||----------------------|
|---------------o||----------------------|
|---1----(1)-----||---1--(1)-------7-----|
|---2----(2)-----||---2--(2)-------7-----|
|---2----(2)----o||---2--(2)-0-(0)-5-----|
|---0----(0)-----||---0--(0)-------------|
|
| E Q. +H E Q. E Q.
|----------------||----------------------|
|---------------o||----------------------|
|----------------||----------------7-----|
|---2----(2)-----||---2------------7-----|
|---2----(2)----o||---2------------5-----|
|---0----(0)-----||---0------------------|
end Rhy Fig 1-|

Verses
$
>
a W +W +W H E Q E
||-------------|--------------|--------------|-------------------|
||o-7s9--------|--(9)---------|--(9)---------|------------7s==9--|
||--7s9--------|--(9)---------|--(9)---------|------------7s==9--|
||--7s9--------|--(9)---------|--(9)---------|------------7s==9--|
||o-5s7--------|--(7)---------|--(7)---------|------------5s==7--|
||--0----------|--------------|--------------|-------------------|
|
| W +W +W +H E E Q
||-------------|--------------|--------------|-------------------|
||o------------|--------------|--------------|-------------------|
||----9--------|--(9)---------|--(9)---------|------------7-7----|
||----9--------|--(9)---------|--(9)---------|------------7-7----|
||o---7--------|--(7)---------|--(7)---------|------------5-5----|
||----0--------|-([0])--------|-([0])--------|-([0])-------------|


E5 D5
Gtr II
W +W +W H E Q.
| | | | |
/ / / / /

Gtr I
>
W +W +W H E Q E
|----------|------------|------------|--------------|
|-9--------|-(9)--------|-(9)--------|--------7s=9--|
|-9--------|-(9)--------|-(9)--------|--------7s=9--|
|-9--------|-(9)--------|-(9)--------|--------7s=9--|
|-7--------|-(7)--------|-(7)--------|--------5s=7--|
|-0--------|-(0)--------|-(0)--------|--------------|


E5 D5

W +W +W H E Q.
| | | | |
/ / / / /

>
W +W +W H E Q E
|----------|------------|------------|--------------|
|-9--------|-(9)--------|-(9)--------|--------7s=9--|
|-9--------|-(9)--------|-(9)--------|--------7s=9--|
|-9--------|-(9)--------|-(9)--------|--------7s=9--|
|-7--------|-(7)--------|-(7)--------|--------5s=7--|
|-0--------|-(0)--------|-(0)--------|--------------|


E5 D5 E5 D5 E5 D5 E5
H +E Q. H +E Q. H E Q. E E E E E E Q
| | | | | | | | | | | | |
/ / / / / / / / / / / / /

<
h +e q e h +e q e h +e q e e e e e e e q
|---------------|---------------|---------------|-------------------------|
|-9----(9)------|-9----(9)------|-9----(9)------|-(9)-(9)-(9)-(9)-9-------|
|-9----(9)-7s=9-|-9----(9)-7s=9-|-9----(9)-7s=9-|--9---9---9---9--9-------|
|-9----(9)-7s=9-|-9----(9)-7s=9-|-9----(9)-7s=9-|--9---9---9---9--9-------|
|-7----(7)-5s=7-|-7----(7)-5s=7-|-7----(7)-5s=7-|--7---7---7---7--7-------|
|-0----(0)------|-0----(0)------|-0----(0)------|--0---0---0---0--0-------|


chorus

w q q q. e h +q +e e
|------------|------------------|-------------------|
|-(2)--------|--------------(9)-|--9-----(9)--(9)---|
|--2---------|-2-------2-----9--|--9-----(9)--(9)---|
|--2---------|-2-------2-----9--|--9-----(9)--(9)---|
|--0---------|-0-------0-----7--|--7-----(7)--(7)---|
|------------|----3b4--------0--|--0-----(0)--(0)-0-|
|
|
| w q q h w
|------------|----3-------------|-------------------|
|------------|----3-------------|-(0)---------------|
|--2---------|-2--0----2--------|--1----------------|
|--2---------|-2--0----2--------|--2----------------|
|--0---------|-0--x----0--------|--2----------------|
|------------|----3-------------|--0----------------|


q q q e e w q q q. e
|----------------|----------|------------------|
|-9--7---9---x---|-2--------|------------------|
|-9--7---9---x---|-2--------|-2-------2----(2)-|
|-9--7---9---x---|-2--------|-2-------2-----2--|
|-7--5---7---x---|-0--------|-0-------0-----0--|
|--------0---x---|----------|----3b4-----------|
|
| q q h w q q h
|----------------|----------|----3-------------|
|----3--(0)------|----------|----3-------------|
|----2---1-------|-2--------|-2--0----2--------|
|-2--0---2-------|-2--------|-2--0----2--------|
|-2--0---2-------|-0--------|-0--x----0--------|
|-0------0-------|----------|----3-------------|

________________ _________
|1. || 2.
to coda
|-3-|
w +w +w +h e q e h q q q
|------------|------------|------------|----------------||----------------||
|------------|------------|------------|----------7s=9-o||----------------||
|--9---------|-(9)--------|-(9)--------|-(9)----x-7s=9--||----------7-7---||
|--9---------|-(9)--------|-(9)--------|-(9)----x-7s=9--||----------------||
|--7---------|-(7)--------|-(7)--------|-(7)----x-5s=7-o||----------------||
|--0---------|-(0)--------|-(0)--------|-(0)----x-------||----------------||
|
| w +w +w +h e q. w
|------------|------------|------------|----------------||----------------||
|-(0)--------|-(0)--------|-(0)--------|-(0)-----------o||-(0)------------||
|--1---------|-(1)--------|-(1)--------|-(1)------7-----||-(1)------------||
|--2---------|-(2)--------|-(2)--------|-(2)------7-----||-(2)------------||
|--2---------|-(2)--------|-(2)--------|-(2)------5----o||-(2)------------||
|--0---------|-(0)--------|-(0)--------|-(0)------------||-(0)------------||


guitar solo
~ ~~~
w +s s a +e +q +q a +e +e
|----------|------------------------------------------------|
|----------|------------------------------------------------|
|----------|-------9b11==(11)-(11)---(11)---9pb11==(11)r(9)p|
|-9--------|-(9)p7------------------------------------------|
|----------|------------------------------------------------|
|----------|------------------------------------------------|
|
| w +q. e e e e e
|----------|------------------------------------------------|
|----------|------------------------------------------------|
|-4--------|-(4)--------------------2-----2--------------2--|
|-4--------|-(4)--------------------2-----2--------------2--|
|-2--------|-(2)--------------------0-----0--------------0--|
|----------|------------------------------------------------|


~
|----3-----|
h +q e e h +q q q
|----------------|--------------------------------|
|-------------10-|-10b12======(12)---10---10r-----|
|-7----(7)--7----|--------------------------------|
|----------------|--------------------------------|
|----------------|--------------------------------|
|----------------|--------------------------------|
|
| w +q. e e e e e
|----------------|--------------------------------|
|----------------|--------------------------------|
|-4--------------|-(4)------2------2----------2---|
|-4--------------|-(4)------2------2----------2---|
|-2--------------|-(2)------0------0----------0---|
|----------------|--------------------------------|


~~~
s s s s s s s s s s s s s s s s s s s s s s s s a +q. e
|-----------------------------------|----------------------------------|
|-10-10---0-0---------0-0---------0-|--0----------0-0------------------|
|---------------4-4---------4-4-----|-------4-4---------2b4==(4)-------|
|-----------------------------------|----------------------------------|
|-----------------------------------|----------------------------------|
|-----------------------------------|----------------------------------|
|
| w +q. e e e e e
|-----------------------------------|----------------------------------|
|-----------------------------------|----------------------------------|
|--4--------------------------------|-(4)-----------2------------2---2-|
|--4--------------------------------|-(4)-----------2------------2---2-|
|--2--------------------------------|-(2)-----------0------------0---0-|
|-----------------------------------|----------------------------------|


|-3-| |-3-|
s s t t t t t t t t t t t t s s s e s s s e
|---7h10p7h9p7----------------------------------|
|--------------10p7h9p7-------------------------|
|-----------------------9p7h9p7-9p7---7---------|
|-----------------------------------9---9p7---9-|
|-------------------------------------------9---|
|-----------------------------------------------|
|
| w
|-----------------------------------------------|
|-----------------------------------------------|
|-4---------------------------------------------|
|-4---------------------------------------------|
|-2---------------------------------------------|
|-----------------------------------------------|


~~~
q a +q +q +s s e
|--------------------------------------|
|---------------------------------/(5)-|
|-----9b11==(11)---(11)---(11)/--------|
|-9------------------------------------|
|--------------------------------------|
|--------------------------------------|
|
| e e e e e e e e
|--------------------------------------|
|---3------------3------3-----------3--|
|---2------------2------2-----------2--|
|---0------------0------0-----------0--|
|-----------------------------------0--|
|--------------------------------------|


gtr i + ii play rhy fig 1

gtr iii
|-3-| |-3-| |-3-| |-3-| |-3-| |-3-| |-3-| |-3-|
s s s s s s s s s s s s s s s s s s s s s s s s
|-7p4p0-7p4p0-7p4p0-7p4p0--7p4p0-7p4p0-7p4p0-7p4p0-|
|--------------------------------------------------|
|--------------------------------------------------|
|--------------------------------------------------|
|--------------------------------------------------|
|--------------------------------------------------|


|-3-| |-3-| |-3-| |-3-| |-3-| |-3-| |-3-| |-3-|
s s s s s s s s s s s s s s s s s s s s s s s s
|-8p5p0-8p5p0-8p5p0-8p5p0--8p5p0-8p5p0-8p5p0-8p5p0---|
|----------------------------------------------------|
|----------------------------------------------------|
|----------------------------------------------------|
|----------------------------------------------------|
|----------------------------------------------------|


|-3-| |-3-| |-3-| |-3-| |-3-| |-3-| |-3-| |-3-|
s s s s s s s s s s s s s s s s s s s s s s s s
|-9p6p0-9p6p0-9p6p0-9p6p0--9p6p0-9p6p0-9p6p0-9p6p0-|
|--------------------------------------------------|
|--------------------------------------------------|
|--------------------------------------------------|
|--------------------------------------------------|
|--------------------------------------------------|


|-3-| |-3-| |-3-| |-3-| |-3-| |-3-| |-3-| |-3-|
s s s s s s s s s s s s s s s s s s s s s s s s
|-10p7p0-10p7p0-10p7p0-10p7p0-10p7p0-10p7p0-10p7p0-10p7p0---|
|-----------------------------------------------------------|
|-----------------------------------------------------------|
|-----------------------------------------------------------|
|-----------------------------------------------------------|
|-----------------------------------------------------------|



|-3-| |-3-| |-3-| |-3-| |-3-| |-3-| |-3-| |-3-|
s s s s s s s s s s s s s s s s s s s s s s s s
|-11p8p0-11p8p0-11p8p0-11p8p0-12p9p0-12p9p0-12p9p0-12p9p0-|
|---------------------------------------------------------|
|---------------------------------------------------------|
|---------------------------------------------------------|
|---------------------------------------------------------|
|---------------------------------------------------------|



|-3--| |-3--| |-3--| |-3--| |-3--| |-3--| |-3--| |-3--|
s s s s s s s s s s s s s s s s s s s s s s s s
|-13p10p0-13p10p0-13p10p0-13p10p0-14p11p0-14p11p0-14p11p0-14p11p0---|
|-------------------------------------------------------------------|
|-------------------------------------------------------------------|
|-------------------------------------------------------------------|
|-------------------------------------------------------------------|
|-------------------------------------------------------------------|



|-3--| |-3--| |-3--| |-3--| |-3--| |-3--| |-3--| |-3--|
s s s s s s s s s s s s s s s s s s s s s s s s
|-15p12p0-15p12p0-15p12p0-15p12p0-16p13p0-16p13p0-16p13p0-16p13p0-|
|-----------------------------------------------------------------|
|-----------------------------------------------------------------|
|-----------------------------------------------------------------|
|-----------------------------------------------------------------|
|-----------------------------------------------------------------|


d.s. al coda
|-3--| |-3--| |-3--| |-3--| |-3--| |-3--| |-3--| |-3--|
s s s s s s s s s s s s s s s s s s s s s s s s
|-18p15p0-18p15p0-18p15p0-18p15p0-18p15p0-18p15p0-18p15p0-18p15p0---|
|-------------------------------------------------------------------|
|-------------------------------------------------------------------|
|-------------------------------------------------------------------|
|-------------------------------------------------------------------|
|-------------------------------------------------------------------|


outro
&
gtr i
w +w 3x h +q e e e q. +q e e
||-------------|-------------||-||-----------------|--------------------|
||o------------|------------o||-||o--------------0-|-----------------2--|
||--(9)--------|-(9)---------||-||--1----(1)---x-0-|-----1----(1)--x-2--|
||--(9)--------|-(9)---------||-||--2----(2)---x-0-|-----2----(2)--x-2--|
||o-(7)--------|-(7)--------o||-||o-2----(2)---x-2-|-----2----(2)--x-0--|
||--(0)--------|-(0)---------||-||--0----(0)---x-3-|-----0----(0)--x----|
|
| gtr ii
| w +w 3x h e e e e +e q. +q e e
||-------------|-------------||-||-----------------|--------------------|
||o-(0)--------|-(0)--------o||-||o----------------|--------------------|
||--(1)--------|-(1)---------||-||-----------------|--------------------|
||--(2)--------|-(2)---------||-||-----------------|--------------------|
||o-(2)--------|-(2)--------o||-||o-2--------------|-----------------0--|
||--(0)--------|-(0)---------||-||--0--------x-x-3-|-(3)-0----(0)-------|


e q. +h q q q e e h +q e e
|---------------|--------------|-----------------|
|---------------|-0--3--0--x---|---------------0-|
|---1----(1)----|-1--2--1--x---|-1----(1)---x--0-|
|---2----(2)----|-2--0--2--x---|-2----(2)---x--0-|
|---2----(2)----|-2--0--2--x---|-2----(2)---x----|
|---0----(0)----|-0-----0--x---|-0----(0)---x--3-|
|
| e q. +h q q h h +q +e e
|---------------|--------------|-----------------|
|---------------|--------------|---------------3-|
|---------------|--------------|---------------0-|
|---------------|-2--0--2------|-2----(2)--(2)-0-|
|---------------|-2-----2------|-2----(2)--(2)-2-|
|---0----(0)----|-0-----0------|-0----(0)--(0)-3-|


e q. +q e e e q. +h q q q q
|-----------------|---------------|--------------||
|---------------2-|---------------|-0--3-----2--o||
|---1----(1)--x-2-|---1----(1)----|-1--2--1--2---||
|---2----(2)--x-2-|---2----(2)----|-2--0--2--2---||
|---2----(2)--x-0-|---2----(2)----|-2--0--2-----o||
|---0----(0)--x---|---0----(0)----|-0-----0------||
|
| e q. +q. e e q. +h q q q q
|-----------------|---------------|--------------||
|-----------------|---------------|----3--------o||
|---------------2-|---------------|----2--2--2---||
|---2----(2)----2-|---2----(2)----|-2--0--2--2---||
|---2----(2)----0-|---2----(2)----|-2--0--0--0--o||
|---0----(0)------|---0----(0)----|-0------------||


q q e e e e +e e q e e e e
|------------------|---------------------|
|-9--9---9--9---12-|-(12)-9-9---9-9-x-14-|
|-9--9---9--9---12-|-(12)-9-9---9-9-x-14-|
|-9--9---9--9---12-|-(12)-9-9---9-9-x-14-|
|-7--7---7--7-0-10-|-(10)-7-7---7-7-x-12-|
|-0--0--------0----|------0-0---0-0-x----|
|
| h +q e e +e e e e e e e e
|------------------|---------------------|
|------------------|------0-0------------|
|-9-----(9)---x--2-|--(2)-1-1-0-1-1-1--2-|
|-9-----(9)---x--2-|--(2)-2-2-0-2-2-2--2-|
|-7-----(7)---x--0-|--(0)-2-2-0-2-2-2--0-|
|-0-----(0)---x----|------0-0---0-0-0----|


+e e q e e e e q q q e e
|---------------------|------------------|
|-(14)-9-9--9-9-9-9---|-9--7--9--9------|
|-(14)-9-9--9-9-9-9---|-9--7--9--9------|
|-(14)-9-9--9-9-9-9---|-9--7--9--9------|
|-(12)-7-7--7-7-7-7---|-7--5--7--7------|

|------0-0--0-0-0-0---|-0--0--0-----0----|
|
| +e e q q e s s q q q e s s
|---------------------|------------------|
|---------------------|-0--3--0--0-------|
|--(2)---1--1---x-0-0-|-1--2--1--1--0-0--|
|--(2)---2--2---x-0-0-|-2--0--2--2--0-0--|
|--(0)---2--2---x-0-0-|-2--0--2--2--0-0--|
|------0-0--0---x-----|-0-----0--0-------|


q q q e e +e e q q e e
|-----------------|--------------------|
|-9--9---9-----12-|-(12)---9---9---x-2-|
|-9--9---9-----12-|-(12)---9---9---x-2-|
|-9--9---9-----12-|-(12)---9---9---x-2-|
|-7--7---7-----10-|-(10)---7---7---x-0-|
|-0--0---0---0----|------0-0---0---x---|
|
| h +q e e +e e e e q. e
|-----------------|--------------------|
|------------0--3-|--(3)---------------|
|-1-----(1)--0--0-|--(0)-0-1-1-1-----2-|
|-2-----(2)--0--0-|--(0)-0-2-2-2-----2-|
|-2-----(2)--0--2-|--(2)---2-2-2-----0-|
|-0-----(0)-----3-|--(3)---0-0-0-------|


+e q. +e e e e q q e e q
|------------------------|----------------*|
|-(2)-0----(0)-0--3--0---|-0--3--0--------*|
|-(2)-1----(1)-1--2--1---|-1--2--1--------*|
|-(2)-2----(2)-2--0--2---|-2--0--2--------*|
|-(0)-2----(2)-2--0--2---|-2--0--2--------*|
|-----0----(0)-0-----0---|-0-----0--------*|
|
| +e q. +q +e s s q q e +q.
|------------------------|----------------*|
|--------------------3-3-|----3-----------*|
|-(2)-1----(1)---(1)-2-2-|-1--2--1-(1)----*|
|-(2)-2----(2)---(2)-0-0-|-2--0--2-(2)----*|
|-(0)-2----(2)---(2)-0-0-|-2--0--2-(2)----*|
|-----0----(0)---(0)-----|-0-----0-(0)----*|



Get this song at amazon.com      Ebay     Ringtones Ringtones  


Learn to play: Songwriting, Piano, Harmonica, Guitar

Related Ac Dc Tabs

Highway To Hell tabs
Live Wire tabs
Jailbreak tabs
Rock N Roll Aint Noise Pollution Solo tabs
Caught With Your Pants Down tabs
Rock And Roll Aint' Noise Polution tabs
All Srewed Up tabs
Rock And Roll Ain't Noise Pollition Intro tabs
Inject The Venum tabs
Back In Black (main Riff) tabs
Who Made Who tabs
Landslide tabs
Tnt Bass tabs
Cold Hearted Man tabs
Sattelite Blues tabs
Stiff Upper Lip Intro tabs
Shook Me All Night Intro tabs
Bonny tabs
One tabs
Solo (tnt) tabs


Guitar Tabs









All tabs are property and copyright of their owners. All tabs provided for educational purposes only. Privacy Policy, DMCA