Ac Dc

Deep In The Hole Solo Tabs



More from Ac Dc

Ac Dc Tabs
Ac Dc Chords
Ac Dc Bass
Ac Dc Lyrics

e|--------------------------------------------------------|
B|------------------------------------------------10^~~---|
G|-7/9-997---7-6~~-------------7/9-997---7-6~~----------|
D|-----99---7-7-7~~-7---------------99---7-7-7~~----------|
A|--------------------7-----------------------------------|
E|----------------------12------------------------------|

e|----------------------------------------------|
B|----------------------------------------------|
G|-7/9-997-------------------------------------|
D|-----99---7^-5--------------------------------|
A|---------------7~~7~~---5--5--5>7~~---------|
E|----------------------------------------------|

e|---------12----------------------12--------------------------------------|
B|------12----15-12-15-12-------12-----15-12-15-12--------14^14^14^-------|
G|--14^---------------------14^--------------------14-12--14^14^14^12-----|
D|---------------------------------------------------------------------14~~|
A|-------------------------------------------------------------------------|
E|-------------------------------------------------------------------------|



Get this song at amazon.com      Ebay     Ringtones Ringtones  


Learn to play: Songwriting, Piano, Harmonica, Guitar

Related Ac Dc Tabs

You Aint Got A Hold On Me tabs
Down Payment Blues tabs
Cant Stop Rock-n-roll tabs
Hells Bells Full Version tabs
Can I Sit Next To You tabs
Cant Stop Rock And Roll tabs
Breaking The Rules tabs
Shot Down In Flames tabs
Hold Me Back tabs
Sink The Pink tabs
Hells Bells This The Best One Here tabs
Rock N Roll Damnation tabs
Back In Black Solo3 tabs
High Voltage 100% Accurate tabs
Bonny tabs
Hail Caeser tabs
Moneytalks Solo tabs
Tnt 100% tabs
Love Hungry Man (intro) tabs
Dog Eat Dog tabs


Guitar Tabs









All tabs are property and copyright of their owners. All tabs provided for educational purposes only. Privacy Policy, DMCA