Ac Dc

D T Tabs



More from Ac Dc

Ac Dc Tabs
Ac Dc Chords
Ac Dc Bass
Ac Dc Lyrics




Key:
\ - Slide
. - Repeat

-------------------------------------------------
--------------------------------4---3------------
--5---5--3--5-\-------------3--3---3---5--2----
---5---5--3--5-\----------5------------------3---
--3---3--3--3-\--------------------------------
-------------------------------------------------

--------------------
--------------------
--5---5--3--5-\---
---5---5--3--5-\----
--3---3--3--3-\---
--------------------


Riff 3 (play 3x) (play 3x)
E---------------------------------------------------
b---------------------------------------------------
G---------------------------------------------------
D---------------------------------------------------
A------1--3------1-----------------1----------------
E---3--------------3--1------1--3---------1--3--1---

Vx3
E------------------------
B------------------------
G--------.---5--5--3-\---
D--------.---5--5--3-\---
A-----1------3--3--3-\---
E--3---------------------x3

solos rythem
E--------------------------then the other Rhythm
B---------------4----3--1--
G--5--3--5-\----3----3--2--
D--5--3--5-\----5----3--3--
A--3--3--3-\---------------
E--------------------------

outro ...fade out
E--------------------------------------------
B-------------------------------3------------
G------------------------4------3--5--2------
D--5---5--3--5-----------3------3--------3---
A--5---5--3--5----3--3---5-------------------
E--------------------------------------------x8fade out



Get this song at amazon.com      Ebay     Ringtones Ringtones  


Learn to play: Songwriting, Piano, Harmonica, Guitar

Related Ac Dc Tabs

Hell Ain't A Bad Place To Be tabs
Rock And Roll Ain Noise Pollution tabs
Bad Boy Boogie tabs
Are You Ready Intro tabs
Deep In The Hole Solo tabs
Rising Power tabs
Flick Of The Switch Solo tabs
Hail Caeser tabs
Back In Black Solo2 tabs
Dog Eat Dog tabs
Big Balls G tabs
Cyberspace tabs
What Do You Do For Money Honey tabs
High Voltage 100% Accurate tabs
Thats The Way I Wanna Rock N Roll tabs
Thunderstruct tabs
Heatseeker Live tabs
If You Want Blood You've Got It tabs
Tnt Bass tabs
Hells Bells G tabs


Guitar Tabs









All tabs are property and copyright of their owners. All tabs provided for educational purposes only. Privacy Policy, DMCA