Ac Dc

Caught With Your Pants Down Tabs



More from Ac Dc

Ac Dc Tabs
Ac Dc Chords
Ac Dc Bass
Ac Dc Lyrics



AC/DC - Caught With Your Pants Down



tabbed by stevie boy walls





Intro:



G1

P.M . . . . . . . . Intros end

|-------------------------------------------------| |--------------------------------|

|-------------------------------------------------| |-----3------3------2------------|

|-------------------------------------------------| |-----4------3------2------------|

|--------------------------------------7--6--5----| |-----------------------------2--|

|--7--------7--------7--------7--------7--6--5----|REPEAT |--2------2------2------2--2--2--|

|--4--0--0--5--0--0--6--0--0--7--0--0-------------| |--0------0------0------0--3--0--|

G2

|-------------------------------------------------| |--------------------------------|

|-------------------------------------------------| |--------------------------------|

|-------------------------------------------------| |--------------------------------|

|-----------------------------------------6--5----| |-----------------------------2--|

|--7--7--7--7--7--7--7--7--7--7--7--7--7--4--3----|REPEAT |-----5------5------4---0--2--2--|

|--4--0--0--5--0--0--6--0--0--7--0--0--5----------| |--0--7---0--6---0--5---0--3--0--|



Riff

|----------------------|------------------|----------------------|

|----------------------|------------------|----------------------|

|-------------2--------|------------------|-------------2--------|

|-------------2-----2--|------------------|----------2--2-----2--|

|----------2--0-----2--|------------------|----------2--0-----2--|

|----------0-----3--0--|------------------|----------0-----3--0--| after a few bars dont include

the blank bar

whip you... to-

|------------------|------------------|--------------------------|

|------------------|------------------|--------------------------|

|------------------|------------------|--------------------------|

|------------------|------------------|--------------------------|

|------------------|------------------|--2--2--2--3--3--3--4--4--|

|------------------|------------------|--3--3--3--3--3--3--3--3--|



night... out drivin'...

|--------------------------|--------------------------|----------------------

|-----3--3--3--3--3--3-----|--------------------------|----------------------

|-----0--0--0--0--0--0-----|--------------------------|----------------------

|-----0--0--0--0--0--0-----|--2--2--2--2--2--2--2--2--|--2--2--2--2--2--2--2-

|--4--------------------0--|--4--0--0--5--0--0--6--0--|--0--0--0--0--0--0--0-

|--3--3--3--3--3--3--3-----|--------------------------|----------------------



maybe I'll get beat up

--------------------------|---------------------------|----------------------|

--------------------------|---------------------------|----------------------|

--2--2--2--2--2--2--2--2--|--2--2--2--22--2--2--2--2--|--2--2--2--2--2--2--2-|

--2--2--2--2--2--2--2--2--|--2--2--2--22--2--2--2--2--|--2--2--2--2--2--2--2-|

--0--0--0--0--0--0--0--0--|--0--0--0--00--0--0--0--0--|--0--0--0--0--0--0--0-|

--------------------------|---------------------------|----------------------|





CHORUS

g1

|------------------|--------------------------|------------------------|

|------------------|--------------------------|------------------------|

|------------------|--4--3--2-----2--1--0-----|------------------------|

|------------------|--4--3--2-----2--1--0-----|----2--2--2--2----2--0--|

|------------------|--------------------------|----2--2--2--2----2--0--|

|------------------|-----------0-----------0--|----0--0--0--0----0--0--|

g2

|------------------|--------------------------|------------------------|

|------------------|--------------------------|------------------------|

|------------------|--------------------------|----1--------1----1-----|

|------------------|--9--8--7-----7--6--5-----|----2--------2----0--0--|

|------------------|--9--8--7-----7--6--5-----|----2--2--2--2----0--0--|

|------------------|--7--6--5--0--5--4--3--0--|-------0--0-------0--0--|

end the chorus with the intros end



Bridge

E|-------------------------|----------------------------|--------------------------------------|

B|-------------------------|----------------------------|--------------------------------------|

G|--4--4--4---4--4---4--4--|---2--2--2--2--2---2--2--2--|--2-2-2-2-2-2-2-2-2-2-2-2-2-2-2-2-2-2-|

D|--4--4--4---4--4---4--4--|---2--2--2--2--2---2--2--2--|--2-2-2-2-2-2-2-2-2-2-2-2-2-2-2-2-2-2-|

A|--2--2--2---2--2---2--2--|---0--0--0--0--0---0--0--0--|--0-0-0-0-4-0-0-5-0-0-6-0-0-0-0-0-0-0-|

E|-------------------------|----------------------------|--------------------------------------|



E|-----------------------------------------|---------------------------------------------------|

B|-----------------------------------------|------------------------------3------3-----2-------|

G|-4--4--4--4--4--4--4--4--4-4-4-4-4-4-4-4-|------------------------------4------3-----2----0--|

D|-4--4--4--4--4--4--4--4--4-4-4-4-4-4-4-4-|--------------------------2---------------------0-2|

A|-2--2--2--2--2--2--2--2--2-2-2-2-2-2-2-2-|--0-----------------------2-------0------0----0-=-2|

E|-----------------------------------------|--0--7--6--5--0--5--4--3--0-------0------0----0---0|



solo tremelo

E|-----------------------------------------------|=|-------------------------------------------|

B|-----------------------------------------------|=|-------------------------------------------|

G|--2b-r-^-0---------Added by tabs-database.com and our distinguished partners
Get this song at amazon.com      Ebay     Ringtones Ringtones  


Learn to play: Songwriting, Piano, Harmonica, Guitar

Related Ac Dc Tabs

Nervous Shakedown tabs
Crabsody In Blue tabs
Rock N Roll Damnation tabs
If You Dare tabs
If You Want Blood tabs
Aint Noise Pollution tabs
All Srewed Up tabs
Dirty Eyes tabs
Big Guns tabs
Flick Of The Switch Solo tabs
Love Hungry Man tabs
Highway To Hell (solo) tabs
Hail Caeser tabs
Let s get it up tabs
Let There Be Rock tabs
Let The Be Rock tabs
Sattelite Blues tabs
Can I Sit Next To You Girl tabs
High Voltage Intro tabs
Sin City tabs


Guitar Tabs









All tabs are property and copyright of their owners. All tabs provided for educational purposes only. Privacy Policy, DMCA