Ac Dc

Cant Stop Rockin Roll Bass Tabs



More from Ac Dc

Ac Dc Tabs
Ac Dc Chords
Ac Dc Bass
Ac Dc Lyrics




~ - let ring
h - hammer on

Intro:
G:--------------------------------
D:--------------------------------
A:----------5--3----3~~~~---------
E:----5--3--------5------5~~~~----

While the last note is ringing, there's one guitar hitting the
first riff, and then the it starts:

Chorus:
G:-----------------------------------------
D:----------------------------------------- x4
A:--------------------3h4h5-5-5-5-5-5-5----
E:----5-5-5-5-3-3-3-3----------------------

Verse:
G:---------------------
D:--------------------- x4
A:---------5-3~~--3----
E:----5-3~3-----5------

Pre-chorus:
G:------------------------------------
D:------------------------------------ x1
A:---------------------3-3~~5-5~~~----
E:----1-1~~~5-5~~~1-1~~---------------

Chorus:
G:-----------------------------------------
D:----------------------------------------- x2
A:--------------------3h4h5-5-5-5-5-5-5----
E:----5-5-5-5-3-3-3-3----------------------

Verse:
G:---------------------
D:--------------------- x4
A:---------5-3~~--3----
E:----5-3~3-----5------

Pre-chorus:
G:------------------------------------
D:------------------------------------ x1
A:---------------------3-3~~5-5~~~----
E:----1-1~~~5-5~~~1-1~~---------------

Chorus:
G:-----------------------------------------
D:----------------------------------------- x4
A:--------------------3h4h5-5-5-5-5-5-5----
E:----5-5-5-5-3-3-3-3----------------------

Bridge:
G:---------------------------------------
D:--------------------------------------- x3
A:------------3-3-3-3-5-5-5-5-5-5-5-5----
E:----5-5-5-5----------------------------

Guitar solo:
G:-----------------------5----------------5----------------5~~---------------
D:---------------------7----------------7----------------7-------------------
A:---------5-3~~--3----------------3----------------3~~~~------------3~~--3~~
E:----5-3~3-----5-----------1-3--5-----------1-3--5-----------1-3~~5----5----

G:--5~~----------------------------------------
D:7--------------------------------------------
A:-----------5--5-5-5-5-5-5-5-5-5-5-5-5-5-5----
E:-----1-3~~~----------------------------------

Chorus:
G:-----------------------------------------
D:----------------------------------------- x8
A:--------------------3h4h5-5-5-5-5-5-5----
E:----5-5-5-5-3-3-3-3----------------------

Outro:
G:------------------------------------
D:------------------------------------
A:----------5~~3~~~-------------------
E:----5~~3~~-------5~~~~~~~~~~~~~~----



Get this song at amazon.com      Ebay     Ringtones Ringtones  


Learn to play: Songwriting, Piano, Harmonica, Guitar

Related Ac Dc Bass Tabs

Stiff Upper Lip bass
Sin City 99% Correct bass
Lets Get It Up bass
Bad Boy Boogie bass
Damned bass
Shook Me All Night Long bass
Rock And Roll Ain't Noise Pollution bass
Razors Edge bass
Boogie Man bass
Its Along Way To The Top bass
Back In Black (joes Way)(right Way) bass
Rock 'n' Roll Ain't Noise Pollution bass
Rock Your Heart Out bass
Night Prowler bass
Its A Long Way To The Top bass
High Voltage bass
Let There Be Rock bass
Kicked In The Teeth bass
Rock & Roll Ain't Noise Pollution bass
Go Down bass


Guitar Tabs









All tabs are property and copyright of their owners. All tabs provided for educational purposes only. Privacy Policy, DMCA