Ac Dc

Big Guns Bass Tabs



More from Ac Dc

Ac Dc Tabs
Ac Dc Chords
Ac Dc Bass
Ac Dc Lyrics




Bass comes in directly at the start.

Main riff

G-------------------
D-------------------
A------------------- 3x
E-00----------------

G-------------------
D-------------------
A---------------0--- 1x
E-00-------------3--

G-------------------
D-------------------
A------------------- 4x
E-0000000000000000--

G-------------------
D-------------------
A-0000000000000000-- 2x
E-------------------

G-------------------
D-------------------
A------------------- 2x
E-0000000000000000--

G-------------------
D-------------------
A------------------- 1x
E-7777777777777777--

G-------------------
D-------------------
A------------------- 1x
E-77--5/3--3333333--

Play the main riff 3x, then play this 4x.

G-------------------
D-------------------
A------------------- 1x
E-00----------------

G-------------------
D-------------------
A-00---------------- 1x
E-------------------

And play the main riff again.
Then play this 4x.

G-------------------
D-------------------
A-------------------
E-00----------------

end on E-0~-



Get this song at amazon.com      Ebay     Ringtones Ringtones  


Learn to play: Songwriting, Piano, Harmonica, Guitar

Related Ac Dc Bass Tabs

Get It Hot bass
Cant Stop Rockin Roll bass
Its A Long Way To The Top bass
Back In Black Bass Tab bass
Highway To Hell (perfect) bass
Big Guns bass
Back In Black (complete) bass
Ball Breaker bass
Lets Get It Up bass
If You Want Blood bass
Hard As A Rock bass
Jail Break bass
Problem Child bass
Sin City 99% Correct bass
Ride On bass
Dog Eat Dog bass
What Do You Do For Money Honey bass
Soul Stripper bass
For Those About To Rock bass
Live Wire bass


Guitar Tabs









All tabs are property and copyright of their owners. All tabs provided for educational purposes only. Privacy Policy, DMCA