Ac Dc

Back Seat Confidential Bass Tabs



More from Ac Dc

Ac Dc Tabs
Ac Dc Chords
Ac Dc Bass
Ac Dc Lyrics




G||-----------------------||
D||----------------------o||
A||--5-------------------o||
E||----5-5--0h3p0p3-0--0--||

G||-----------|-----------|-----------|-----||
D||-----------|-----------|-----------|-----||
A||-----------|--5--5--5--|-----------|-----||
E||--0--0--0--|-----------|--5--5--5--|--0--||

Solo:

G||--------------------------||
D||--------------------------||
A||--------------------------||
E||--5-5-5-5-5-5-5-5-5-5-5-5-||

G||----------------------------||
D||----------------------------||
A||--2-2-2-2-2-2-2-2-2-2-2-2---||
E||----------------------------||

Thats it , any questions comments email me @ T-.N.-T@hotmail.com

Cheers !!!



Get this song at amazon.com      Ebay     Ringtones Ringtones  


Learn to play: Songwriting, Piano, Harmonica, Guitar

Related Ac Dc Bass Tabs

Givin The Dog A Bone bass
Let There Be Rock (easy To Read) bass
Show Business bass
Big Balls bass
The Razors Edge bass
If You Want Blood bass
Ride On bass
Shook Me All Night Long bass
Goodbye And Good Riddance To Bad Luck bass
T.n.t bass
C O D bass
Rock 'n' Roll Ain't Noise Pollution bass
Thunder Struck bass
Back In Black (perfect) bass
Ball Breaker bass
Hells Bells Adapted For Bass bass
Twos Up bass
Boogie Man bass
Rocker bass
Hells Bells Tested 100% bass


Guitar Tabs









All tabs are property and copyright of their owners. All tabs provided for educational purposes only. Privacy Policy, DMCA