Ac Dc

Back In Black5 Tabs



More from Ac Dc

Ac Dc Tabs
Ac Dc Chords
Ac Dc Bass
Ac Dc Lyrics

Back in black              note play this song with distortion


By Billy Gartin

p=pull off
b=bend
bp=bend then pull off

E-----2-2-2-----------------3p0------------2-2-2--------------------------------------]
B-----3-3-3------2-2-2--------3p0----------3-3-3----2-2-2-----------------------------]
G-----2-2-2------2-2-2---------2bp0--------2-2-2----2-2-2-----------------------------]
D-----0-0-0------2-2-2---------------------0-0-0----2-2-2-----------------------------]
A-2--------------0-0-0---------------2--------------0-0-0----2----2---2----2--------------]
E-0----------------------------------0------------------------4----5---6---7-------------]


E------------------------------------------------------------------------
B---------------------------------------------------------------------
G-----------------------------------------------------------------------
D--2-------3--2---3-----2-----3-2-3-----------------------------------------
A--0--2----1--0---1-----0--2--1-0-1------------------------------------------
E-----0--------------------0-------------------------------------------
Get this song at amazon.com      Ebay     Ringtones Ringtones  


Learn to play: Songwriting, Piano, Harmonica, Guitar

Related Ac Dc Tabs

If You Want Blood tabs
Safe In New York City tabs
Thats The Way I Wanna Rock N Rock tabs
Brainshake tabs
Deep In The Hole tabs
Cold Hearted Man tabs
High Way To Hell tabs
Two tabs
Flick Of The Switch tabs
The Honey Roll Intro tabs
Beating Around Te Bush tabs
Back In Black2 tabs
Satellite Blues Bass tabs
Inject The Venum tabs
Boogie Man tabs
Nervous Shakedown tabs
Spellbound tabs
Stink Around tabs
Twos Up Intro tabs
Hells Bells Full Version tabs


Guitar Tabs









All tabs are property and copyright of their owners. All tabs provided for educational purposes only. Privacy Policy, DMCA