Ac Dc

Back In Black (u Dig It) Tabs



More from Ac Dc

Ac Dc Tabs
Ac Dc Chords
Ac Dc Bass
Ac Dc Lyrics




e|----2-2-2--------30--------|----2-2-2-----------------|
B|----3-3-3-2-2-2----30------|----3-3-3-2-2-2-----------|
G|----2-2-2-2-2-2------2bp0--|----2-2-2-2-2-2-----------|
D|-2--------2-2-2------------|-2--------2-2-2-----------|
A|-2--------0-0-0------------|-2--------0-0-0--2-2-2-2--|
E|-0-------------------------|-0----------------4-5-6-7-|


OR


e|----2-2-2------------30--------|----2-2-2------------------------|
B|----3-3-3--2-2-2-------30------|----3-3-3-2-2-2------------------|
G|----2-2-2--2-2-2---------2bp0--|----2-2-2-2-2-2------------------|
D|-2---------2-2-2---------------|-2--------2-2-2------------------|
A|-2---------0-0-0---------------|-2--------0-0-0------------------|
E|-0-----------------------------|-0---------------7-4-7-5-7-6-7-7-|


OR


Em D D D A A A Em D D D A A A
e|-0--2-2-2--0-0-0-----30-------|-0--2-2-2--0-0-0-----------|
B|-0--3-3-3--2-2-2-------30-----|-0--3-3-3--2-2-2-----------|
G|-0--2-2-2--2-2-2---------2bp0-|-0--2-2-2--2-2-2-----------|
D|-2--0-0-0--2-2-2--------------|-2--0-0-0--2-2-2-----------|
A|-2---------0-0-0--------------|-2---------0-0-0--2-2-2-2--|
E|-0----------------------------|-0-----------------4-5-6-7-|


OR


Em D D D A A A Em D D D A A A
e|-0--2-2-2--0-0-0-----30-------|-0--2-2-2--0-0-0------------------|
B|-0--3-3-3--2-2-2-------30-----|-0--3-3-3--2-2-2------------------|
G|-0--2-2-2--2-2-2---------2bp0-|-0--2-2-2--2-2-2------------------|
D|-2--0-0-0--2-2-2--------------|-2--0-0-0--2-2-2------------------|
A|-2---------0-0-0--------------|-2---------0-0-0------------------|
E|-0----------------------------|-0----------------7-4-7-5-7-6-7-7-|


OR


e|---------------------30-------|---------------------------|
B|-----------------------30-----|---------------------------|
G|----7-7-7----------------2bp0-|----7-7-7------------------|
D|-2--7-7-7--7-7-7--------------|-2--7-7-7--7-7-7-----------|
A|-2--5-5-5--7-7-7--------------|-2--5-5-5--7-7-7--2-2-2-2--|
E|-0---------5-5-5--------------|-0---------5-5-5---4-5-6-7-|


OR


e|---------------------30-------|----------------------------------|
B|-----------------------30-----|----------------------------------|
G|----7-7-7----------------2bp0-|----7-7-7-------------------------|
D|-2--7-7-7--7-7-7--------------|-2--7-7-7--7-7-7------------------|
A|-2--5-5-5--7-7-7--------------|-2--5-5-5--7-7-7------------------|
E|-0---------5-5-5--------------|-0---------5-5-5--7-4-7-5-7-6-7-7-|

Lyrics
(album version)

Back in Black

Back in Black
I hit the sack
I been too long
I'm glad to be back
Yes, I'm dead loose
from the noose that's kept me hanging around.
I'm just, uh, livin' on the side 'cause it's gettin' me high,
forget the hearse cause I never die.
I got nine lives, cat's eyes,
each and evry one of them is wondrin why,
cause I'm back!
Yes, I'm back!
Mama, I'm Back!
Yes, I'm back!
Well, I'm back, back.
Well, I'm back in black, yes I'm back in black! Ow!

Back in the thing,
I drive a Cadillac,
mama, one with a bullit,
I'm a power pack.
Yes, I'm in a band,
with a gang,
they've got to catch me if they want me to hang,
cause I'm back on the track and I'm beatin the fox,
nobody's gonna get me on another rap.
So look at me now, I'm just, uh, makin' my bread,
don't try to push your luck, just get out of my way
cause I'm back!
Yes, I'm back!
Well, I'm back!
Yes, I'm back!
Well, I'm back, back.
Well, I'm back in black, yes, I'm back in black.

(solo)

Well, I'm back!
Yes, I'm back!
Well, I'm back!
Yes, I'm back!
Well, I'm back, back.
Well, I'm back in black, yes, I'm back in black.

(solo)

Well, I'm back, back,
Back, back, back, back,
Back in black, yes, I'm back in black.



Get this song at amazon.com      Ebay     Ringtones Ringtones  


Learn to play: Songwriting, Piano, Harmonica, Guitar

Related Ac Dc Tabs

Thunderstuct tabs
Boom Boom tabs
Dirty Deeds Done Dirt Cheap Intro tabs
U Shook Me All Night Long tabs
Tnt Live tabs
Inject The Venom tabs
Easy Tnt tabs
Dt tabs
Schools Days tabs
Big Balls tabs
You Shook Me All Night Intro tabs
Rock And Roll Ain't Noise Pollution tabs
Live Wire tabs
Shoot To Thrill tabs
Meanstreak tabs
Playing With Girls tabs
Flick Of The Switch Solo tabs
Shes Got Balls tabs
Love Hungry Man (intro) tabs
Bedlam In Belgium tabs


Guitar Tabs









All tabs are property and copyright of their owners. All tabs provided for educational purposes only. Privacy Policy, DMCA