Ac Dc

Back In Black Tabs



More from Ac Dc

Ac Dc Tabs
Ac Dc Chords
Ac Dc Bass
Ac Dc Lyrics

Song: Back in Black

Artist: Ac/Dc

Album: Back in Black

Tabber: Daniel Palson



b=bend

/=slide







INTRO play 3x

--------------------------------------------------|

--------------------------------------------------|

--------------------------------------------------|

--9-----------777---------------------------------|

--7-----------555------------777------------------|

--0--------------------------555------------------|







---3-0-------------------------------------------------|

-------3-0---------------------------------------------|

-----------2b------------------------------------------|

--------------------9----777---------------------------|

--------------------7----555---777---------------------|

--------------------0----------555---------------------|







------------------------------------------|

------------------------------------------|

------------------------------------------|

------------------------------------------|

----9-6----9-7----9-8----9-9--------------|

----7-4----7-5----7-6----7-7--------------|







rythm figure play 3x

--------------------------------------|

--------------------------------------|

----2-----4---2---4-------------------|

----2--2--4---2---4-------------------|

----0--2--2---0---2-------------------|

-------0------------------------------|



choris

--3-----3---3---3-3-3-3---3---2---2---2---2---2---2------------|

--3-----3---3---3-3-3-3---3---3---3---3---3---3---3------------|

--4-----4---4---4-4-4-4---4---2---2---2---2---2---2------------|

--5-----5---5---5-5-5-5---5---0---0---0---0---0---0------------|

--5-----5---5---5-5-5-5---5------------------------------------|

--3-----3---3---3-3-3-3---3------------------------------------|



Back in Black___ Yes, I'm Back__ Back in Black_





Solo

---------------------------------------------------------------|

---------------------------------------------------------------|

---------------------------------------------------------------|

-9-----7-7-7-----7-7-7-----------------9-9-9-----9-9-9---9-9-9-|

-7-----5-5-5-----4-4-4-----------------7-7-7-----7-7-7---7-7-7-|

-0-----0-0-0-----0-0-0-----------------0-0-0-----0-0-0---0-0-0-|





---------------------------------------------------------------|

------------------------------------2------0--------2----------|

------------------------------------2------1--------2----------|

-7-----7-7-7------7-7-7-------------2------2--------2----------|

-9-----5-5-5------4-4-4--------2----0------2--------0----------|

-0-----0-0-0------0-0-0--------0-------------------------------|









--------------------------|---------------------------------------|

--------------------------|---------------------------------------|

--------------------------|------------------0-2--3p2p0--2--------|

--------------------------|----------------------------------2----|

-------7vvvvv---5---5vvvv-|-4--4vvvvv-----2-----------------------|

--0-----------------------|---------------------------------------|





-----------------------------|------------------------------------|

-----------------------------|------------------------------------|

-----------------------------|-------------------7--7--7---x---7--|

-----------------------------|------------------------------------|

-------7vvvvvv----5---5vvvvv-|-4---4vvvvvvv-----------------------|

--0--------------------------|------------------------------------|





---------------------------|--------------------------------------|

------------5--8-----------|----8-10h11p10p8--10-8----------------|

----------------7b9-9vvv---|--9---------------------9-7-9--12--12-|

--7b9vvvvv-----------------|---------------------------------14---|

---------------------------|--------------------------------------|

---------------------------|--------------------------------------|





---------------------------------|--------------------------------|

-------15---15--15---------------|-------------------------15-----|

-14b16---14b16---14b16r14p12-14vv|12-------12---14-12-14b16--14b16|

---------------------------------|12h14-14---14-------------------|

---------------------------------|--------------------------------|

---------------------------------|--------------------------------|





-----12--12-------------------------12----------------------------|

--12--------15b17-15b17-15b17-15b17----15-12-----12---------------|

----------------------------------------------14-----1214b16------|

------------------------------------------------------------------|

------------------------------------------------------------------|

------------------------------------------------------------------|





------------15----------------------------------------------------|

--15--------------------------------------------------------------|

----14b16-------16p14---12--14-----12b14vvvvvvv-----12--13--14----|

--------------------------------14--------------------------------|

------------------------------------------------------------------|

------------------------------------------------------------------|





------------------------------------------------------------------|

--------14-----------------15-------------------------------------|

-12-----14-------12h14b16-------14b16r14-12-14--------------------|

----14--------14--------------------------------14vvvvv-----------|

------------------------------------------------------------------|

------------------------------------------------------------------|





----------------------------12------------------------------------|

--15b17vvvvvvvvvvvvvv-----------15--12-------12-------------------|

----------------------------------------14-------12---------------|

-----------------------------------------------------14x----------|

------------------------------------------------------------------|

------------------------------------------------------------------|



---0-----------0--0------|-0---0-0-----------------12-------------|

-0---3--5-----/5--3--3---|-2p0-2-2--------------12----15b17-------|

--------4----------------|---------------/14b16----------------0--|

-------------------------|----------------------------------------|

-------------------------|----------------------------------------|

-------------------------|----------------------------------------|







--0--------------0------0vvvv-|-0-----0vvvv-----------------------|

--5--3--3-5vvv---5--0h2-3vvvv-|-2-0-0-2vvvv--14b15r14-12-14b15----|

------------------------------|--------------14b15r14-12-14b15----|

------------------------------|-----------------------------------|

------------------------------|-----------------------------------|

------------------------------|-----------------------------------|

Well i'm back





Back in Black

-2--------2-----2---------|

-3--------3-----3---------|

-2--------2-----2---------|

-0--------0-----0---------|

--------------------------|

--------------------------|





end part

--------------|-------------|------------------------------------|

--------13b15-|-12b13---r12-|-10---------------------------------|

--------------|-------------|------------------------------------|

--------------|-------------|------------------------------------|

--------------|-------------|------------------------------------|

--------------|-------------|---------------------(12)-----------|





------------------------|-0-----0vvvv----------------------------|

-5-3-3-5vv---3-2-2-3vvv-|-2-0-0-2--------12----------------------|

------------------------|----------------12----------------------|

------------------------|--------------------------14------------|

------------------------|----------------------------------------|

------------------------|----------------------------------------|





------------------------|--------------------------12------------|

-5-3-3-5vv---3-2-2-3vv--|-2-0-0-2vvvv-------15b17-----12--15b17--|

------------------------|----------------------------------------|

------------------------|----------------------------------------|

------------------------|----------------------------------------|

------------------------|----------------------------------------|





--------------------------------------------------------------------------|

--------------------------------------------------------------------------|

--------------------------------------------------------------------------|

--------------------------------------------------------------------------|

---5-4-2-4---------------------------5-4-2-4------------------------------|

-0---------3---7-5-7-6-7-7\\\\----0-----------3~--7-5-7-6-7-7\\\\---------|





--------------------------------------------------------------------------|

--------------------------------------------------------------------------|

--------------------------------------------------------------------------|

--------------------------------------------------------------------------|

---5-4-2-4---------------------------5-4-2-4------------------------------|

-0---------3---7-5-7-6-7-7\\\\----0----------3~--7-5-7-6-7-7\\\\----------|



--------------------------------------------------------------------------|

--------------------------------------------------------------------------|

--------------------------------------------------------------------------|

---5-4-2-4---------------------------5-4-2-4------------------------------|

-0---------3~--7-5-7-6-7-7\\\\----0----------3~--7-5-7-6-7-7\\\\----------|

--------------------------------------------------------------------------|

Get this song at amazon.com      Ebay     Ringtones Ringtones  


Learn to play: Songwriting, Piano, Harmonica, Guitar
301 Moved Permanently

Moved Permanently

The document has moved here.

Related Ac Dc Tabs

T.n.t tabs
Chase The Ace tabs
Powerage tabs
Back In Black Live tabs
Back In Black 100% tabs
Guns For Hire tabs
Have A Drink tabs
Night Prowler tabs
Rock And Roll Singer tabs
Stick Around tabs
Baby Please Dont Go2 tabs
Beating Around The Bush tabs
Momma Lova tabs
Hell Ain't A Bad Place To Be tabs
Hail Ceasar tabs
Rock And Roll Ain't Noise Pollution tabs
Cod tabs
I Put The Finger On You tabs
Rising Power (intro) tabs
Back In Black Intro tabs


Guitar Tabs




All tabs are property and copyright of their owners. All tabs provided for educational purposes only. Privacy Policy, DMCA