Ac Dc

Back In Black (main Riff) Tabs



More from Ac Dc

Ac Dc Tabs
Ac Dc Chords
Ac Dc Bass
Ac Dc Lyrics




Song: Back in Black
Artist: AC/DC
Album: Back in Black
Standard Tuning (E A D G B e)

|--------------------------------|--------------3-0---------------|
|------------3--3--3------(2)(2)-|(2)---------------3-0-----------|
|(1)---------2--2--2-------2--2--|-2--------------------2h4p2-0---|
|-2----------0--0--0-------2--2--|-2------------------------------|
|-2------------------------0--0--|-0------------------------------|
|-0------------------------------|--------------------------------|

|--------------------------------|--------------------------------|
|------------3--3--3------(2)(2)-|(2)-----------------------------|
|(1)---------2--2--2-------2--2--|-2------------------------------|
|-2----------0--0--0-------2--2--|-2------------------------------|
|-2------------------------0--0--|-0------2----2----2-----2-------|
|-0------------------------------|-----------4----5----6----7/----|



Get this song at amazon.com      Ebay     Ringtones Ringtones  


Learn to play: Songwriting, Piano, Harmonica, Guitar

Related Ac Dc Tabs

Sattelite Blues tabs
Stand Up tabs
Back In Black (whole) tabs
You Shook Me All Night Long(intro) tabs
Problem Child tabs
Razors Edge tabs
Tnt Live tabs
Fling Thing tabs
Safe In New York City tabs
Dirty Deeds tabs
It\'s A Long Way To The Top tabs
Hold Me Back tabs
Its A Long Way tabs
Burnin Alive tabs
Easy Tnt tabs
Rock N Roll Damnation tabs
Thunderstuct tabs
Evil Walks tabs
Back In Black Intro tabs
Meanstreak tabs


Guitar Tabs









All tabs are property and copyright of their owners. All tabs provided for educational purposes only. Privacy Policy, DMCA