Ac Dc

Back In Black (easy) Bass Tabs



More from Ac Dc

Ac Dc Tabs
Ac Dc Chords
Ac Dc Bass
Ac Dc Lyrics




Verse
G|----------------------------------------------------------|
D|----------------------------------------------------------|
A|-7----5-5-5----------7----5-5-5---------------------------|
E|-------------5-5-5---------------5-5-5---7-5-7-5-7-5-7-5--|

Chorus
G|----------------------------------------------|
D|------------------------5----------5----------|
A|--------------------------5----------5--------|
E|--5-0-7-5-7--5-0-7-5-7------5-3-5------5-3-5--|

Solo
G|-----------------------------------|
D|-----------------------------------|
A|-7----5-5-5------------------------|
E|-------------5-5-5---5-5-5--5-5-5--|

Bridge
G|------------------|
D|--------2--4--10--|
A|--3---------------|
E|------------------|

Verse x4
Chorus x2
Verse x2
Chorus x2
Solo x6
Chorus x2
Bridge x8
Chorus x2
Solo until end



Get this song at amazon.com      Ebay     Ringtones Ringtones  


Learn to play: Songwriting, Piano, Harmonica, Guitar

Related Ac Dc Bass Tabs

Damned bass
Hells Bells Tested 100% bass
The Jack bass
Dirty Deeds Done Dirty Cheap bass
Theres Gonna Be Some Rockin bass
Safe In New York City bass
Go Down bass
If You Want A Blood bass
Big Gun bass
Evil Walks bass
Jail Break bass
Soul Stripper bass
Get It Hot bass
Rock 'n' Roll Ain't Noise Pollution bass
Thunderstruck bass
Thunder Struck(live) bass
Hihghway To Hell bass
T.n.t bass
Rock N' Roll Ant Noise Pollution bass
Lets Make It bass


Guitar Tabs









All tabs are property and copyright of their owners. All tabs provided for educational purposes only. Privacy Policy, DMCA