Ac Dc

Back In Black Live Tabs



More from Ac Dc

Ac Dc Tabs
Ac Dc Chords
Ac Dc Bass
Ac Dc Lyrics



Back In Black Live
Ac/Dc
Ac/Dc Live

e|----------------------------------------------------------------|
B|----------------------------------------------------------------|
G|----------------------------------------------------------------|
D|----------------------------------------------------------------|
A|----------------------------------------------------------------|
E|-12-----------------------------------------------------------|


Main Riff
E|------------------|3p0-----------|------------------|-----------------|
B|-----3-3-3--------|----3p0-------|-----3-3-3--------|-----------------|
G|-----2-2-2--2-2-2-|--------2^-2p0|-----2-2-2--2-2-2-|-----------------|
D|--2--0-0-0--2-2-2-|--------------|--2--0-0-0--2-2-2-|-----------------|
A|--2---------0-0-0-|--------------|--2---------0-0-0-|2---2---2---2----|
E|--0---------------|--------------|--0---------------|--4---5---6---7-|

Chorus

e|--------------------------------------------------------|
B|--------------------------------------------------------|
G|-2-------4----2----4--------2-------4----2----4---------|
D|-2-------4----2----4--------2-------4----2----4---------|
A|-0--2----2----0----2--------0--2----2----0----2---------|
E|----0--------------------------0------------------------|

e|--------------------------------------------------------|
B|-3--3-----------------------3--3------------------------|
G|-0--2----2---------2--------0--2----2---------2---------|
D|-0--0----2---------2--------0--0----2---------2---------|
A|---------0---------0----------------0---------0---------|
E|-3------------3-------------3------------3--------------|


e|--------------------------------------------------------|
B|--------------------------------------------------------|
G|-2-------4----2----4--------2-------4----2----4---------|
D|-2-------4----2----4--------2-------4----2----4---------|
A|-0--2----2----0----2--------0--2----2----0----2---------|
E|----0--------------------------0------------------------|

e|-3----3--3--3--------3--3----3--3--3--3--3--3--3----2----2--2-------|
B|-3----3--3--3--------3--3----3--3--3--3--3--3--3----3----3--3-------|
G|-0----0--0--0--------0--0----0--0--0--0--0--0--0----2----2--2-------|
D|-0----0--0--0--------0--0----0--0--0--0--0--0--0----0----0--0-------|
A|--------------------------------------------------------------------|
E|-3----3--3--3--------3--3----3--3--3--3--3--3--3--------------------|

Solo 1

e|---------------------------------------------------------------------|
B|---------------------------------------------------------------------|
G|-------------------------0-2h3p0-2---0-------------------------------|
D|-----------------------------------2---------------------------------|
A|---7-7---5-5-5----4-4-4----------------------------------------------|
E|-0-----0--------0----------------------------------------------------|


e|---------------------------------------------------------------------|
B|------------------------------------------5-8/10---8^----------------|
G|--------------------------7-7-7-7-7-7-7^---------9-------------------|
D|---------------------------------------------------------------------|
A|---7--7---5-5-5---4-4-4----------------------------------------------|
E|-0------0--------0---------------------------------------------------|


e|---------------------------------------------------------------------|
B|-8-10h11p10-8-10-8---------------------------------------------------|
G|--------------------9-7-9^-----12-12-12^-----------12-14^-12-14^-----|
D|------------------------------------------14-------------------------|
A|---------------------------------------------------------------------|
E|---------------------------------------------------------------------|


e|-------------------------------------|
B|-15-15-15^-15-12---------------------|
G|-----------------14-12----12^--------|
D|-----------------------14------------|
A|-------------------------------------|
E|-------------------------------------|


e|----12^-12^-12^-12^-12^-12^-12^-12^-12^-12^-12^-12^------------------|
B|-12---------------------------------15-12----12----------------------|
G|------------------------------------------14----1214^-12-14^--------|
D|---------------------------------------------------------------------|
A|---------------------------------------------------------------------|
E|---------------------------------------------------------------------|

e|-12------------------------------------------------------------------|
B|----15-12-----12-----------------------------------------------------|
G|----------14------12-14^-12-14^--------------------------------------|
D|---------------------------------------------------------------------|
A|---------------------------------------------------------------------|
E|---------------------------------------------------------------------|

e|-----------------------12--------------------------------------------|
B|---------------12-15^-----15-12----12--------------------------------|
G|-14^-12-14^-12------------------14-----12----------------------------|
D|-------------------------------------------14---------------------|
A|---------------------------------------------------------------------|
E|---------------------------------------------------------------------|

e|----0-----------0--0------------0----0--0----------------12---------|
B|-0-----3--5----/5--3----3-------2p0--2--2-------------12----15^(17)-|
G|----------4----------------------------------/14^(16)---------------|
D|--------------------------------------------------------------------|
A|--------------------------------------------------------------------|
E|--------------------------------------------------------------------|


e|-0-------------0-------------0--------0-----------------------------|
B|-5--3--3--5----5--0h2--3-----2--0--0--2-----14^(15)^(14)-12-14^(15)-|
G|--------------------------------------------14^(15)^(14)-12-14^(15)-|
D|--------------------------------------------------------------------|
A|--------------------------------------------------------------------|
E|--------------------------------------------------------------------|


Solo 2


e|-----------------------------------|
B|-----------------------------------|
G|-----------------------------------|
D|-----------------------------------|
A|----54-2-4------------------------|
E|-0-----------3-7-5---7-6---7-7-----| x4

e|------------------------------|
B|------------------------------|
G|------------------------------|
D|---54-2-4--------------------|
A|-0----------3-7-5---76---7-7--|
E|------------------------------| x2

e|-----------------------------------|
B|-----------------------------------|
G|-----------------------------------|
D|-----------------------------------|
A|----54-2-4------------------------|
E|-0-----------3-7-5---7-6---7-7-----| x2

Outro

e|----------------------|
B|----3-3-3-------------|
G|----2-2-2-2-2-2------|
D|-2-0-0-0-2-2-2-2*--|
A|-2---------0-0-0-2---|
E|-0----------------0---|


e|---------------------------3p0----------------|
B|-------------------------------3p0------------|
G|-----------------------------------2^p0-------|
D|-----------------------------------2^p0-2*-2-|
A|-----------------------------------------2-2-|
E|-0-0-0-0-0-0-0-0-0-0-0-0-----------------0-0-|
Tremolo picking


Order

Main Riff
Chorus
Main Riff
Chorus
Solo 1
Chorus
Solo 2
Chorus
Outro


Key

^ -------| Bend
* -------| Let Ring
/ -------| Slide Up
-------| Slide Down
h -------| Hammer on
p -------| Pull off


Get this song at amazon.com      Ebay     Ringtones Ringtones  


Learn to play: Songwriting, Piano, Harmonica, Guitar

Related Ac Dc Tabs

Back In Black- Only The Intro tabs
Are You Ready tabs
Stick Around tabs
Moneytalks Solo tabs
Sink The Pink tabs
Easy Tnt tabs
Deep In The Hole tabs
There's Gonna Be Some Rockin tabs
Rock Your Heart Out tabs
For Those About To Rock G tabs
Dt tabs
Boogie Man tabs
Theres Gonna Some Rockin tabs
Whiskey On The Rocks tabs
Its A Long Way tabs
High Way To Hell tabs
Powerage tabs
High Voltage tabs
Solo (tnt) tabs
Walk All Over You tabs


Guitar Tabs









All tabs are property and copyright of their owners. All tabs provided for educational purposes only. Privacy Policy, DMCA