Ac Dc

Back In Black Intro Tabs



More from Ac Dc

Ac Dc Tabs
Ac Dc Chords
Ac Dc Bass
Ac Dc Lyrics



-----------------------------------------------3p0------------------------
---------------------------------------------------3p0--------------------
-------------------------------------------------------2s3s2p0------------
-----------------7-7-7----------------------------------------------------
----2------------5-5-5-----7-7-7------------------------------------------
----0----------------------5-5-5------------------------------------------

--------------------------------------------------------------------------
--------------------------------------------------------------------------
--------------------------------------------------------------------------
-----------------7-7-7----------------------------------------------------
----2------------5-5-5-----7-7-7------------------------------------------
----0----------------------5-5-5-------------7-4-7-5-7-6-7-7--------------


Get this song at amazon.com      Ebay     Ringtones Ringtones  


Learn to play: Songwriting, Piano, Harmonica, Guitar

Related Ac Dc Tabs

Bak In Black tabs
Damned tabs
Four tabs
Hells Bells G tabs
Rock And Roll Aint' Noise Polution tabs
Touch Too Much tabs
Thats The Way I Wanna Rock N Roll tabs
Beating Around Te Bush tabs
Burnin' Alive tabs
Big Balls tabs
Shoot To Thrill Live tabs
Sattelite Blues tabs
Hell Aint A Bad Place To Be tabs
About To Rock tabs
Breaking The Rules tabs
Rock N Roll Singer Intro tabs
Twos Up tabs
Big Balls G tabs
Rock N Roll Damnation tabs
Hell Ain't A Bad Place To Be tabs


Guitar Tabs









All tabs are property and copyright of their owners. All tabs provided for educational purposes only. Privacy Policy, DMCA