Ac Dc

Back In Black (100%) Bass Tab Bass Tabs



More from Ac Dc

Ac Dc Tabs
Ac Dc Chords
Ac Dc Bass
Ac Dc Lyrics




r= let ring

Main Riff (Play 4 Times)

G:-----7-7-7---6-6-6-- REST
D:-------------------- REST
A:-7------------------ REST
E:-------------------- REST

G:-----7-7-7---6-6-6--4---4-2-4-3-4-4
D:----------------------6------------
A:-7---------------------------------
E:-----------------------------------

Chorus

G:-4--4-4-4--4--4--4---2-2--4---4-4-4-4-4--4---2-2--4----2--2--2--2---0-0-2
D:-----------------------------------------------------2-------------------
A:-------------------------------------------------------------------------
E:-------------------------------------------------------------------------

G:-2---2-2-2-2-2--2---0-0-2----2r-----4--2r--4
D:---------------------------------2----------
A:--------------------------------------------
E:--------------------------------------------

G:-4--4--4--4--2-2-4-0---0-0-0-0-0---0-0-6-7r--7-7-7-7---
D:------------------------------------------------------7
A:-------------------------------------------------------
E:-------------------------------------------------------

Main Riff X2

Chorus

During Solo

G:-2---2---2-2--2-2-2-2-2--2---2---2-2---2---2-2--- X3
D:-------------------------------------0---0-------
A:-------------------------------------------------
E:-------------------------------------------------

G:-4--4-4-4--4-4--2-2-4--4--4-4-4--4-4--2-2-4-----2--2--2--2--0-0-2---2--2--2--2--0-0-2
D:---------------------------------------------2-------------------2-------------------
A:-------------------------------------------------------------------------------------
E:-------------------------------------------------------------------------------------

G:-2-----4--2--4--4--4--4--4---2-2-4-0-0-0-0-0-0--0--0--6--7r--7-7-7-7-------------
D:----2----------------------------------------------------------------------------
A:------------------------------------------------------------------------7--------
E:--------------------------------------------------------------------------0-----0

Chorus X1

Bridge(guitar only)

Outro/Solo
G:--------------------------------------------------------- x2
D:---------------------------------------------------------
A:-----5-5-5--3-3-3-----------------5-5-5--3-3-3-----------
E:--0----------------0-1-0-1-0---0----------------0-7-5-7--



Get this song at amazon.com      Ebay     Ringtones Ringtones  


Learn to play: Songwriting, Piano, Harmonica, Guitar

Related Ac Dc Bass Tabs

Back In Black (joes Way)(right Way) bass
Lets Get It Up bass
Cant Stop Rockin Roll bass
T.n.t (100% I Should Know) bass
Shook Me All Night Long bass
Rock And Roll Damnation bass
Have A Drink On Me bass
Hail Caesar bass
D T bass
Highway To Hell bass
Bad Boy Boogie bass
Money Talks bass
Givin The Dog A Bone bass
Are You Ready bass
Let There Be Rock (easy To Read) bass
Kicked In The Teeth bass
Nervous Shakedown bass
Shes Got Balls bass
Sin City bass
Safe In New York City bass


Guitar Tabs









All tabs are property and copyright of their owners. All tabs provided for educational purposes only. Privacy Policy, DMCA